Oops, an error
Loading. Please wait.

Nick Gibbs - Jam Away Tab

66 views 1 this week
no commentswrite comment
1 2 3 4 5
please rate
add to favorites
launch autoscroll
font size
0
reset
how to read this tab
guitar tuner
Autoscroll
slow
fast
+/-
esc
set tempo
stop
Help us to improve Ultimate-Guitar.com Take our survey!
×
Author
Difficulty
Tuning
intermediate
D# G# C# F# A# D#
Tuning: down one half step
Contact me at ak47nick@gmail.com

this is just a little jammin song i wrote to play when im bored hope u guys like it. If 
u have ideas about changes in the guitar part or lyrics please email me. Thank you.

----------------------------------------------------------------|
----------------------------------------------------------------|
--------------------5-5----------------------5--5---------------|
-----8--8--8--------5-5h7-------8--8--8------5--5h7-------------|
-----8--8--8---5h7--------------8--8--8--5h7--------------------|
-----6--6--6--------------------6--6--6-------------------------|

-----------------------------------------------------------|
-----------------------------------------------------------|
----------------3--3--------------------3--3---------------|
-3--3--3--------3--3h5----3--3--3-------3--3h5-------------|
-3--3--3---3h5------------3--3--3---3h5--------------------|
-5--5--5------------------5--5--5--------------------------|


Play all of above twice…………then

----------------------------------------------------------------|
----------------------------------------------------------------|
--------------------5--5---------------------5--5---------------|
-----8--8--8--------5--5h7-----8--8--8-------5--5h7-------------|
-----8--8--8---5h7-------------8--8--8--5h7---------------------|
-----6--6--6-------------------6--6 -6--------------------------|

---------------3s5---5s3--|
---------------3s5---5s3--|
--------------------------|      x2
-3--3--3------------------|
-3--3--3------------------|
-5--5--5------------------|

                                 Play all of above 2 times, then…………..

-----
-----
-----
--10-    x8
--10-
---8-

-----
-----
-----
-13--   x8
-13--
-11--
Play all of above twice, then after second time…….


-----------------------------10------------|
-----------------------------10------------|
------------10h12--12b14-----------12b14---|
-----12------------------------------------|      x2
-------------------------------------------|
--10---------------------------------------|


------|
------|
------|
--10--|    x8
--10--|
---8--|

-----
-----
-----
-13--    x8
-13--
-11--

--------------------------------------------------------------|
--------------------------------------------------------------|
--------------------------------------------------------------|
---14s15--12---12-----14s15--12---10h12p10h12p10h12p10h12p10--|
--------------------------------------------------------------|
--------------------------------------------------------------|

-------------------------------------------------------------------|
-------------------------------------------------------------------|
-------------------------------------------------------------------|
------12b14b12--10-12---12b14b12--10-12----------------------------|
-------------------------------------------------------10s12--10---|
-------------------------------------------------------------------|

------|
------|
------|
--10--|    x8
--10--|
---8--|

-----
-----
-----
-13--    x8
-13--
-11--


--------------|
--------------|
--------------|
-3--3--3------|   x4
-3--3--3------|
-5--5--5--- --|

------|
------|
------|
--10--|    x8
--10--|
---8--|

-----
-----
-----
-13--    x8
-13--
-11--

--------------|
--------------|
--------------|
-3--3--3------|   x4
-3--3--3------|
-5--5--5------|


------|
------|
------|
--10--|    x8
--10--|
---8--|

-----
-----
-----
-13--    x8
-13--
-11--


--------------|
-0------------|
-0------------|
-3------------|
-3------------|
-5------------|
Suggest correction
Give kudos to tab author, rate the tab!
1 2 3 4 5
comments
print report bad tab
guest
You may want to rate the tab now too:
select rating
Wanna post a correction for this tab? Suggest correction