Oops, an error
Loading. Please wait.

Nick Magrene - Escape Tab

1 view 1 this week
no commentswrite comment
1 2 3 4 5
3 more votes to show rating
add to favorites
launch autoscroll
font size
0
reset
how to read this tab
guitar tuner
Autoscroll
slow
fast
+/-
esc
set tempo
stop
Help us to improve Ultimate-Guitar.com Take our survey!
×
Author
Difficulty
Tuning
advanced
C G C F A D
About this tab version
Guitar tab for lead guitar. Was this info helpful? Yes No
-----------------------------------------------------------------
Escape - Nick Magrene
-----------------------------------------------------------------
Tabbed by: Nick Magrene

Tuning: (C G C F A D)

e|-----------------------------------------------------------------|
B|-----------------------------------------------------------------|
G|-------------5------------------------5--------------------------|
D|----1/3-----------3\2--------1/3---------3/2---------------------|
A|-----------------------------------------------------------------|
E|-0--------0--------------0----------0----------------------------|


e|-----------------------------------------------------------------|
B|-----------------------------------------------------------------|
G|-------------4------------------------4--------------------------|
D|----1/3-----------3\2--------1/3---------3/2---------------------|
A|-----------------------------------------------------------------|
E|-0--------0--------------0----------0----------------------------|


e|-----------------------------------------------------------------|
B|---------------5--------------------------5----------------------|
G|-------------------5---------------------------5-----------------|
D|-----------------------5----------------------------5------------|
A|------3---------------------------3------------------------------|
E|-1/3-----3-------------------3-------3---------------------------|

e|-----------------------------------------------------------------|
B|-----------------------------------------------------------------|
G|-----------------------------------------2-----------------------|
D|----------5-3h5p3p2-----------------------3p2--------------------|
A|-----2------------------2-----------1----------------2-----------|
E|--2-------------------------------1------------------------------|

e|-----------------------------------------------------------------|
B|-----------------------------------------------------------------|
G|-------------5------------------------5--------------------------|
D|----1/3-----------3\2--------1/3---------3/2---------------------|
A|-----------------------------------------------------------------|
E|-0--------0--------------0----------0----------------------------|


e|-----------------------------------------------------------------|
B|-----------------------------------------------------------------|
G|-------------4------------------------4--------------------------|
D|----1/3-----------3\2--------1/3---------3/2---------------------|
A|-----------------------------------------------------------------|
E|-0--------0--------------0----------0----------------------------|


e|-----------------------------------------------------------------|
B|---------------5--------------------------5----------------------|
G|-------------------5---------------------------5-----------------|
D|-----------------------5----------------------------5------------|
A|------3---------------------------3------------------------------|
E|-1/3-----3-------------------3-------3---------------------------|


e|-----------------------------------------------------------------|
B|-----------------------------------------------------------------|
G|-----------------------------------------2-----------------------|
D|----------5-3h5p3p2-----------------------3p2--------------------|
A|-----2------------------2-----------1----------------2-----------|
E|--2-------------------------------1------------------------------|


e|-----------------------------------------------------------------|
B|-----------------------------------------------------------------|
G|--5-5----------5-5-------------5-5-------------------------------|
D|--------3-3-2--------3-3-2----------3/5-5-5\3--------------------|
A|-----------------------------------------------------------------|
E|-----------------------------------------------------------------|


e|-----------------------------------------------------------------|
B|-------------------------3-3------------3-3----------------------|
G|---5-5-------------------------5-5--2--------5-5--2--------------|
D|---------3/5-5-5\3-----------------------------------------------|
A|-----------------------------------------------------------------|
E|-----------------------------------------------------------------|


e|--5-5---------------3-3------------------------------------------|
B|--------3-3---------------5-5------------------------------------|
G|--------------2------------------3-------------------------------|
D|-----------------------------------------------------------------|
A|-----------------------------------------------------------------|
E|-----------------------------------------------------------------|

e|-----------------------------------------------------------------|
B|-----------------------------------------------------------------|
G|--5-5----------5-5-------------5-5-------------------------------|
D|--------3-3-2--------3-3-2----------3/5-5-5\3--------------------|
A|-----------------------------------------------------------------|
E|-----------------------------------------------------------------|

e|-----------------------------------------------------------------|
B|-------------------------3-3------------3-3----------------------|
G|---5-5-------------------------5-5--2--------5-5--2--------------|
D|---------3/5-5-5\3-----------------------------------------------|
A|-----------------------------------------------------------------|
E|-----------------------------------------------------------------|

e|--5-5---------------3-3------------------------------------------|
B|--------3-3---------------5-5------------------------------------|
G|--------------2------------------3-------------------------------|
D|-----------------------------------------------------------------|
A|-----------------------------------------------------------------|
E|-----------------------------------------------------------------|


e|------------------------------------------------------------------|
B|------------------------------------------------------------------|
G|------------------------------------------------------------------|
D|-----------------------------5------------------------------------|
A| -0--------------------1-----3---1--2--3--------------------------|
E|--0---x---x---x---x---1-------- 1--2--3------------ --------------|

e|-----------------------------------------------------------------|
B|-----------------------------------------------------------------|
G|-----------------------------------------------------------------|
D|----------------------------2------------------------------------|
A|--0--------------------1---0---3---2--1--------------------------|
E|---0---x---x---x---x--1-------3---2---1--------------------------|


e|------------------------------------------------------------------|
B|------------------------------------------------------------------|
G|------------------------------------------------------------------|
D|-----------------------------5------------------------------------|
A| -0--------------------1-----3---1--2--3--------------------------|
E|--0---x---x---x---x---1-------- 1--2--3------------ --------------|

e|-----------------------------------------------------------------|
B|-----------------------------------------------------------------|
G|-----------------------------------------------------------------|
D|----------------------------2------------------------------------|
A|--0--------------------1---0---3---2--1--------------------------|
E|---0---x---x---x---x--1-------3---2---1--------------------------|


e|---------------5-10-5----------5/13-10--------------10------------|
B|-------------6----------6----6------------10------10--------------|
G|---------7-----------------7------------------10------------------|
D|------7-----------------------------------------------------------|
A|-5-8--------------------------------------------------------------|
E|------------------------------------------------------------------|

e|-12--9--------------9/15-12----------------------------------------|
B|---------11-----11-------------14----------------------------------|
G|-------------12---------------------15--12-------------------------|
D|----------------------------------------------14-------------------|
A|---------------------------------------------------16--------------|
E|-------------------------------------------------------------------|

e|---17--13-------------13-8-------------------------------------8-----|
B|------------13-----13--------10----------------------------10--------|
G|----------------14----------------10------------------10-------------|
D|---------------------------------------10---------10-----------------|
A|-------------------------------------------12--8---------------------|
E|---------------------------------------------------------------------|


e|-13-8---------------8-12--------------13-8----------------8------------|
B|--------10------10---------10-----10--------10-------10----------------|
G|-------------10-----------------10-----------------10------------------|
D|-----------------------------------------------------------------------|
A|-----------------------------------------------------------------------|
E|-----------------------------------------------------------------------|


e|--11-8----------8-11-8----------8-11-8-----------8----------------------|
B|---------8----8-----------8----8----------8-----8-----------------------|
G|------------8----------------8----------------8-------------------------|
D|------------------------------------------------------------------------|
A|------------------------------------------------------------------------|
E|------------------------------------------------------------------------|


e|-10-6---------6-10-6---------6-10-6---------6--------------------|
B|-------8----8----------8-----8---------8----8--------------------|
G|----------7----------------7---------------7---------------------|
D|-----------------------------------------------------------------|
A|-----------------------------------------------------------------|
E|-----------------------------------------------------------------|


e|-13-10-------------10-13-10-------------10-13-10------------10--------|
B|---------10-----10-------------10-----10-------------10----10---------|
G|-------------10---------------------10--------------------10----------|
D|----------------------------------------------------------------------|
A|----------------------------------------------------------------------|
E|----------------------------------------------------------------------|


e|--12--9---------------9-15-12---------------------------------------|
B|---------11-------11-----------14-----------------------------------|
G|--------------12--------------------15-12---------------------------|
D|---------------------------------------------14---------------------|
A|--------------------------------------------------16----------------|
E|--------------------------------------------------------------------|


e|---------------5-10-5----------5/13-10--------------10------------|
B|-------------6----------6----6------------10------10--------------|
G|---------7-----------------7------------------10------------------|
D|------7-----------------------------------------------------------|
A|-5-8--------------------------------------------------------------|
E|------------------------------------------------------------------|

e|-12--9--------------9/15-12----------------------------------------|
B|---------11-----11-------------14----------------------------------|
G|-------------12---------------------15--12-------------------------|
D|----------------------------------------------14-------------------|
A|---------------------------------------------------16--------------|
E|-------------------------------------------------------------------|

e|---17--13-------------13-8-------------------------------------8-----|
B|------------13-----13--------10----------------------------10--------|
G|----------------14----------------10------------------10-------------|
D|---------------------------------------10---------10-----------------|
A|-------------------------------------------12--8---------------------|
E|---------------------------------------------------------------------|


e|-13-8---------------8-12--------------13-8----------------8------------|
B|--------10------10---------10-----10--------10-------10----------------|
G|-------------10-----------------10-----------------10------------------|
D|-----------------------------------------------------------------------|
A|-----------------------------------------------------------------------|
E|-----------------------------------------------------------------------|


e|--11-8----------8-11-8----------8-11-8-----------8----------------------|
B|---------8----8-----------8----8----------8-----8-----------------------|
G|------------8----------------8----------------8-------------------------|
D|------------------------------------------------------------------------|
A|------------------------------------------------------------------------|
E|------------------------------------------------------------------------|


e|-10-6---------6-10-6---------6-10-6---------6--------------------|
B|-------8----8----------8-----8---------8----8--------------------|
G|----------7----------------7---------------7---------------------|
D|-----------------------------------------------------------------|
A|-----------------------------------------------------------------|
E|-----------------------------------------------------------------|


e|-13-10-------------10-13-10-------------10-13-10------------10--------|
B|---------10-----10-------------10-----10-------------10----10---------|
G|-------------10---------------------10--------------------10----------|
D|----------------------------------------------------------------------|
A|----------------------------------------------------------------------|
E|----------------------------------------------------------------------|


e|--12--9---------------9-15-12---------------------------------------|
B|---------11-------11-----------14-----------------------------------|
G|--------------12--------------------15-12---------------------------|
D|---------------------------------------------14---------------------|
A|--------------------------------------------------16----------------|
E|--------------------------------------------------------------------|

e|-tap17-13-10-------------17-13-10--------------17-17-------------|
B|-----------------17-11-10--------------17-11-10------------------|
G|-----------------------------------------------------------------|
D|-----------------------------------------------------------------|
A|-----------------------------------------------------------------|
E|------tap next 16 bars-------------------------------------------|


e|--17-13-10-------------17-13-10--------------17-17---------------|
B|---------------17-11-10--------------17-11-10--------------------|
G|-----------------------------------------------------------------|
D|-----------------------------------------------------------------|
A|-----------------------------------------------------------------|
E|-----------------------------------------------------------------|


e|-17-12-8-----------17-12-8------------17--17---------------------|
B|-----------17-10-8------------17-10-8----------------------------|
G|-----------------------------------------------------------------|
D|-----------------------------------------------------------------|
A|-----------------------------------------------------------------|
E|-----------------------------------------------------------------|


e|-17-12-8-----------17-12-8------------17--17---------------------|
B|-----------17-10-8------------17-10-8----------------------------|
G|-----------------------------------------------------------------|
D|-----------------------------------------------------------------|
A|-----------------------------------------------------------------|
E|-----------------------------------------------------------------|

e|-15-11-8-----------15-11-8-----------15-15-----------------------|
B|------------15-9-8------------15-9-8-----------------------------|
G|-----------------------------------------------------------------|
D|-----------------------------------------------------------------|
A|-----------------------------------------------------------------|
E|-----------------------------------------------------------------|


e|-15-11-8-----------15-11-8-----------15-15-----------------------|
B|------------15-9-8------------15-9-8-----------------------------|
G|-----------------------------------------------------------------|
D|-----------------------------------------------------------------|
A|-----------------------------------------------------------------|
E|-----------------------------------------------------------------|

e|-15-10-6----------15-10-6-------------15-15----------------------|
B|-----------15-8-6------------15-8-6------------------------------|
G|-----------------------------------------------------------------|
D|-----------------------------------------------------------------|
A|-----------------------------------------------------------------|
E|-----------------------------------------------------------------|


e|-15-10-6----------15-10-6-------------15-15----------------------|
B|-----------15-8-6------------15-8-6------------------------------|
G|-----------------------------------------------------------------|
D|-----------------------------------------------------------------|
A|-----------------------------------------------------------------|
E|-----------------------------------------------------------------|


e|----17-13-10-------------17-13-10--------------17-17-------------|
B|-----------------17-11-10--------------17-11-10------------------|
G|-----------------------------------------------------------------|
D|-----------------------------------------------------------------|
A|-----------------------------------------------------------------|
E|-----------------------------------------------------------------|


e|--17-13-10-------------17-13-10--------------17-17---------------|
B|---------------17-11-10--------------17-11-10--------------------|
G|-----------------------------------------------------------------|
D|-----------------------------------------------------------------|
A|-----------------------------------------------------------------|
E|-----------------------------------------------------------------|


e|-17-12-8-----------17-12-8------------17--17---------------------|
B|-----------17-10-8------------17-10-8----------------------------|
G|-----------------------------------------------------------------|
D|-----------------------------------------------------------------|
A|-----------------------------------------------------------------|
E|-----------------------------------------------------------------|


e|-17-12-8-----------17-12-8------------17--17---------------------|
B|-----------17-10-8------------17-10-8----------------------------|
G|-----------------------------------------------------------------|
D|-----------------------------------------------------------------|
A|-----------------------------------------------------------------|
E|-----------------------------------------------------------------|

e|-15-11-8-----------15-11-8-----------15-15-----------------------|
B|------------15-9-8------------15-9-8-----------------------------|
G|-----------------------------------------------------------------|
D|-----------------------------------------------------------------|
A|-----------------------------------------------------------------|
E|-----------------------------------------------------------------|


e|-15-11-8-----------15-11-8-----------15-15-----------------------|
B|------------15-9-8------------15-9-8-----------------------------|
G|-----------------------------------------------------------------|
D|-----------------------------------------------------------------|
A|-----------------------------------------------------------------|
E|-----------------------------------------------------------------|

e|-15-10-6----------15-10-6-------------15-15----------------------|
B|-----------15-8-6------------15-8-6------------------------------|
G|-----------------------------------------------------------------|
D|-----------------------------------------------------------------|
A|-----------------------------------------------------------------|
E|-----------------------------------------------------------------|


e|-15-10-6----------15-10-6-------------15-15----------------------|
B|-----------15-8-6------------15-8-6------------------------------|
G|-----------------------------------------------------------------|
D|-----------------------------------------------------------------|
A|-----------------------------------------------------------------|
E|-----------------------------------------------------------------|


e|------------------------------------------------------------------|
B|------------------------------------------------------------------|
G|------------------------------------------------------------------|
D|-----------------------------5------------------------------------|
A| -0--------------------1-----3---1--2--3--------------------------|
E|--0---x---x---x---x---1-------- 1--2--3------------ --------------|

e|-----------------------------------------------------------------|
B|-----------------------------------------------------------------|
G|-----------------------------------------------------------------|
D|----------------------------2------------------------------------|
A|--0--------------------1---0---3---2--1--------------------------|
E|---0---x---x---x---x--1-------3---2---1--------------------------|


e|------------------------------------------------------------------|
B|------------------------------------------------------------------|
G|------------------------------------------------------------------|
D|-----------------------------5------------------------------------|
A| -0--------------------1-----3---1--2--3--------------------------|
E|--0---x---x---x---x---1-------- 1--2--3------------ --------------|

e|-----------------------------------------------------------------|
B|-----------------------------------------------------------------|
G|-----------------------------------------------------------------|
D|----------------------------2------------------------------------|
A|--0--------------------1---0---3---2--1--------------------------|
E|---0---x---x---x---x--1-------3---2---1--------------------------|


e|-----------------------------------------------------------------|
B|-----------------------------------------6-8--8~10~8-6-----------|
G|---9~10~9-5-------------------5-7-9------------------------------|
D|----------------5-7-5---5-7-8------------------------------------|
A|-----------------------------------------------------------------|
E|-----------------------------------------------------------------|


e|-----------------------------------------------------------------|
B|-8-6-5--6-------6-------6--------6---------4/8-------------------|
G|------------5\3----5\3------5\3-----5\3--------------------------|
D|-----------------------------------------------------------------|
A|-----------------------------------------------------------------|
E|-----------------------------------------------------------------|


e|------------------------------------------------------------------|
B|-8-6-5~6~5---------------------18----------17---------------------|
G|---------------7\5-----------15-----15\14------14\12--------------|
D|---------------------5/7------------------------------------------|
A|------------------------------------------------------------------|
E|------------------------------------------------------------------|


e|-----------------------------------------------------------------|
B|--15-----------13---------15----------13-------------------------|
G|-------12\10-------10\9------12\10------10\9---------------------|
D|-----------------------------------------------------------------|
A|-----------------------------------------------------------------|
E|-----------------------------------------------------------------|


e|-----------------------------------------------------------------|
B|--12----------10---------10-11-10------10------------------------|
G|-------9\7--------7\5---------------12-------12-11-12------------|
D|-----------------------------------------------------------------|
A|-----------------------------------------------------------------|
E|-----------------------------------------------------------------|


e|------------------------------------------10-----------------------|
B|--10-11-10----10---------------13~15-----15-10---------------------|
G|-------------12-----12-11-12---------------------------------------|
D|-------------------------------------------------------------------|
A|-------------------------------------------------------------------|
E|-------------------------------------------------------------------|


e|-----------------------------------------------------------------|
B|---13-------------13----------13---------13---------12~14--------|
G|-----------10\9--------10\9-------10\9------10\9-----------------|
D|-----------------------------------------------------------------|
A|-----------------------------------------------------------------|
E|-----------------------------------------------------------------|


e|----------------------------------------------------------------------------|
B|--10-10~11~10--10-11-10-----10----------10-13-10----10----------------------|
G|-------------------------------12-----12-10-------------13----13-10-13~15---|
D|----------------------------------------------------------------------------|
A|----------------------------------------------------------------------------|
E|----------------------------------------------------------------------------|


************************************

| /  Slide up
| \  Slide down
| h  Hammer-on
| p  Pull-off
| x  Dead note
| ~  Vibrato

************************************
Suggest correction
Give kudos to tab author, rate the tab!
1 2 3 4 5
comments
print report bad tab
guest
You may want to rate the tab now too:
select rating
Wanna post a correction for this tab? Suggest correction