Oops, an error
Loading. Please wait.

Nickel Eye - Back From Exile Tab

984 views 1 this week
no commentswrite comment
1 2 3 4 5
please rate
add to favorites
launch autoscroll
font size
0
reset
how to read this tab
guitar tuner
Autoscroll
slow
fast
+/-
esc
set tempo
stop
Help us to improve Ultimate-Guitar.com Take our survey!
×
Author
Intro
e-----------------------------|
B---5-5---5----------------2--|
G-------6------------------2--|
D----------------------2---2--|
A-4------------4/2---0---0-0--|
E-----------------------------|

Main Riff
e-------------------------|
B-------5---------------2-|
G-------6---------------2-|
D---6---6-----------2---2-|
A-4---4-4---4/2---0---0-0-|
E-------------------------|

e---------|
B-5~---2~-|
G-6~---2~-|
D-6~---2~-|
A-4~---0~-|
E---------|

(x2)
e-------------------|
B-55555555-22222222-|
G-66666666-22222222-|
D-66666666-22222222-|
A-44444444-00000000-|
E-------------------|

e----------------------------------------------------------|
B----------------------------------------------------------|
G----------------------------------------------------------|
D-11111111111111--13131313131313---11111111111111--888-999-|
A-9-9-9-9-9-9-9---11111111111111---9-9-9-9-9-9-9---666-777-|
E----------------------------------------------------------|

SOLO
e------------------------------------------------------------|
B------------------------------------------------------------|
G----9----9----9----9----9-11b----9---------9----9----9----9-|
D-11---11---11---11---11-------11---11---10---10---10---10---|
A------------------------------------------------------------|
E------------------------------------------------------------|

e----------------------------------------|
B----------------------------------------|
G---9---9---9----9-----------------------|
D-9---9---9----9-------------------------|
A--------------------9-7---------------9-|
E------------------------9-777---4-5-7---|

OUTRO
e-----------------------------------------------------------|
B-----------------------------------------------------------|
G-----------------------------------------------------------|
D-11111111111111--13131313131313---11111111111111--888-9~---|
A-9-9-9-9-9-9-9---11111111111111---9-9-9-9-9-9-9---666-7~---|
E-----------------------------------------------------------|
Suggest correction
Give kudos to tab author, rate the tab!
1 2 3 4 5
comments
print report bad tab
guest
You may want to rate the tab now too:
select rating
Please do not post tabs as comments. Select "correction" instead!