Oops, an error
Loading. Please wait.

Nicki French - Total Eclipse Of The Heart bass

43 views 3 this week
no commentswrite comment
1 2 3 4 5
3 more votes to show rating
add to favorites
×
Save as Personal and add changes to this tab that will be seen only by you. Learn more ›
×
You can save this tab as Personal to edit and correct it or add notes. All changes will be seen only by you. Learn more »
launch autoscroll
font size
0
reset
guitar tuner
edit
Autoscroll
slow
fast
+/-
esc
set tempo
stop
Author
Total Eclipse Of The Heart
Originally recorded by Bonnie Tyler, this excellent cover by Nicki French 
Peaked at number 5 UK charts in 1995. Tab by bass50611. Welcome to my tab
That is in 2 parts.  Part one is the standard chart version and Part 2 is 
The 12” Dance Mix.  Dance Mix version needs tuned down E string to Lower D
Hope you enjoy both versions Have Fun! Symbol ‘.’ Are pause dots

Verse 1:           (Hold)
G|----------------|-----------------------------------------------|
D|-KEYBOARD START-|-----------------------------------------------|
A|----------------|-12--\7-\--------------------------------------|
E|----------------|----------5------3------5------3------8-----\6-|

G|-----------------------------------------------------------------------|
D|--------------------6----6---8-------6----6----------------------------|
A|---------------6---------------6-----------------------------2-3---4-5-|
E|-8-----\6--------------------------------------3-----2-0---------------|

G|------------------------------------------------------------------------|
D|------------------------------------------------------------------------|
A|----------------2-3-------5---------------------3-------5---------------|
E|-2-3------0----------------------3-------0---------------------3------0-|

                             (Break)
G|-------------------------------|
D|-------------------------------|
A|-2------3----2-0------5--------|
E|-----------------------------3-|

Verse 2:                                    (Play This Bit x2)
G|---------------------------------------------------|
D|---------------------------------------------------|
A|---------------------------------------------------|
E|-5--5--5--5---1--1--1--1---3--3--3--3---0--0--0--0-|

                                            (Play This Bit x2)
G|-------------------------------------------------|
D|-------------------------------------------------|
A|-------------------------------------------------|
E|-8--8--8--8--8--8--8--8---6--6--6--6--6--6--6--6-|

                                                  (Pause)       (Break)
G|----------------------------------------------------------------|
D|-------------6--6--6--6--6--6--6--6--------------6------6--6--6-|
A|-6--6--6--6--------------------------6--6--6--6-----------------|
E|----------------------------------------------------------------|

Chorus:                                   (Play This Bit x3)
G|--------------------------------------------------|
D|--------------------------------------------------|
A|--------------------------3--3--3--3---5--5--5--5-|
E|-3--3--3--3---0--0--0--0--------------------------|

G|---------------------------------------------------------------|
D|---------------------------------------------------------------|
A|-3--3--3--3---5--5--5--5---------------------------------------|
E|---------------------------0--0--0--0---5--5--5--5--5--5--5--5-|

G|---------------------------------------------------------------|
D|---------------------------------------------------------------|
A|---------------------------------------------------------------|
E|-3--3--3--3---2--2--2--2---0--0--0--0---5--5--5--5--5--5--5--5-|

                                   (Pause)
G|-------------------------------------|
D|-------------------------------------|
A|-------------0--0--2--2--3--3--3-4-5-|
E|-3--3--3--3--------------------------|

G|-----------------------------------------|
D|-----------------------------------------|
A|-------------2-----3----2--0-----5-------|
E|-3-----0-------------------------------3-|

G|-----------------------------------|
D|-----------------------------------|
A|-------------2-----3----2--0-----5-|
E|-3-----0---------------------------|

Outro:                                  (Repeat To Fade/End)
G|--------------------------------------------------|
D|--------------------------------------------------|
A|--------------------------3--3--3--3---5--5--5--5-|
E|-3--3--3--2--0--0--0--0---------------------------|



Part 2 Total Eclipse Of The Heart (12” Dance Mix)

PLEASE NOTE TUNING. TUNE THE E STRING DOWN TO LOWER D

Intro:                                  (Play This Bit x2)
  ‘.’    ‘.’    ‘.’   ‘.’    ‘.’    ‘.’    ‘.’    ‘.’
G|---------------------------------------------------|
D|-7-------------5------------7-------------5--------|
A|--------8------------7-------------8-------------7-|
D|---------------------------------------------------|

  ‘.’    ‘.’    ‘.’    ‘.’    ‘.’    ‘.’    ‘.’    ‘.’
G|----------------------------------------------------|
D|----------------------------------------------------|
A|----------------------------------------------------|
D|-7------3------5------2------7------3------5------2-|

                                          (Play This Bit x4)
G|---------------------------------------------------|
D|---------------------------------------------------|
A|---------------------------------------------------|
D|-7--7--7--7---3--3--3--3---5--5--5--5---2--2--2--2-|

Verse 1:                                  (Play This Bit x2)
G|---------------------------------------------------|
D|---------------------------------------------------|
A|---------------------------------------------------|
D|-7--7--7--7---3--3--3--3---5--5--5--5---2--2--2--2-|

                                           (Play This Bit x2)
G|-------------------------------------------------|
D|-------------------------------------------------|
A|-3--3--3--3--3--3--3--3---1--1--1--1--1--1--1--1-|
D|-------------------------------------------------|

G|--------------------------------------------------|
D|--------------------------------------------------|
A|--------------------------------------------------|
D|-1--1--1--1---6--6--6--6--6--6--6--6---1--1--1--1-|
                      ‘.’
G|-----------------------|
D|-----------------------|
A|-----------------------|
D|-6--6--6--6----6--6--6-|

Chorus:                                    (Play This Bit x3)
G|---------------------------------------------------|
D|---------------------------------------------------|
A|---------------------------3--3--3--3---5--5--5--5-|
D|-5--5--5--5---2--2--2--2---------------------------|

G|---------------------------------------------------------------|
D|---------------------------------------------------------------|
A|--------------------------2--2--2--2---3--3--3--2---0--0--0--0-|
D|-5--5--5--5---2--2--2--2---------------------------------------|

G|-----------------------------------|
D|-----------------------------------|
A|-5--5--5--5------------------------|
D|------------5--5--5--5--5--5--5--5-|

Interlude 1:
  ‘.’    ‘.’    ‘.’    ‘.’    ‘.’    ‘.’    ‘.’    ‘.’
G|----------------------------------------------------|
D|----------------------------------------------------|
A|----------------------------------------------------|
D|-7------3------5------2------7------3------5------2-|

Verse 2:                                  (Play This Bit x2)
G|---------------------------------------------------|
D|---------------------------------------------------|
A|---------------------------------------------------|
D|-7--7--7--7---3--3--3--3---5--5--5--5---2--2--2--2-|

                                           (Play This Bit x2)
G|-------------------------------------------------|
D|-------------------------------------------------|
A|-3--3--3--3--3--3--3--3---1--1--1--1--1--1--1--1-|
D|-------------------------------------------------|

G|--------------------------------------------------|
D|--------------------------------------------------|
A|--------------------------------------------------|
D|-1--1--1--1---6--6--6--6--6--6--6--6---1--1--1--1-|

                      ‘.’
G|-----------------------|
D|-----------------------|
A|-----------------------|
D|-6--6--6--6----6--6--6-|

Chorus:                                    (Play This Bit x3)
G|---------------------------------------------------|
D|---------------------------------------------------|
A|---------------------------3--3--3--3---5--5--5--5-|
D|-5--5--5--5---2--2--2--2---------------------------|

Bridge:
G|---------------------------------------------------------------|
D|---------------------------------------------------------------|
A|---------------------------------------------------------------|
D|-2--2--2--2---4--4--4--4---2--2--2--2---7--7--7--7--7--7--7--7-|

G|---------------------------------------------------------------|
D|---------------------------------------------------------------|
A|---------------------------------------------------------------|
D|-5--5--5--5---4--4--4--4---2--2--2--2---7--7--7--7--7--7--7--7-|

                                             (Break)
G|------------------------------------------|
D|------------------------------------------|
A|-3--3--3--3---0--0--2--2---3--3--3--3-----|
D|----------------------------------------0-|

Interlude 2: (NO BASS)

Outro: 
  ‘.’    ‘.’    ‘.’    ‘.’    ‘.’     ‘.’
G|------------------------------------------------------------------|
D|------------------------------------------------------------------|
A|---------------2------3--2---0-------5----------------------------|
D|-5------2------------------------------------5--5--5-5--5-5-------|

                     (Keep Playing This Riff For 59 secs)
G|---------------------------------|
D|---------------------------------|
A|---------------------------------|
D|-5--5--5-5--5-5---5--5--5-5--5-5-|

G|---------------------------------------------------------------|
D|---------------------------------------------------------------|
A|--------------------------2--2--2--2---3--3--3--2---0--0--0--0-|
D|-5--5--5--5---2--2--2--2---------------------------------------|

G|-----------------------------------|
D|-----------------------------------|
A|-5--5--5--5------------------------|
D|------------5--5--5--5--5--5--5--5-|
  ‘.’    ‘.’    ‘.’    ‘.’    ‘.’     ‘.’     ‘.’      (End)
G|---------------------------------------------------------|
D|---------------------------------------------------------|
A|---------------2------3--2---0-------5-------------------|
D|-5------2------------------------------------5---------5-|

Symbol ‘.’ Are Pause Dots

            
            
Suggest correction
Creating personal tab
Creating personal tab
You can edit any tab online and save it as your Personal.

You can edit, replace or remove any tab part or add personal notes – all changes will be seen only by you.

Personal tabs can be accessed anytime from any device, even offline.
Learn more »
Give kudos to tab author, rate the tab!
1 2 3 4 5
comments
print report bad tab
guest
You may want to rate the tab now too:
select rating
Wanna post a correction for this tab? Suggest correction