Oops, an error
Loading. Please wait.

Nicki Taylor - Here Comes Vi Tab

7,703 views 3 this week
1 commentread comment
1 2 3 4 5
worth learning
x 6
add to favorites
launch autoscroll
font size
0
reset
how to read this tab
guitar tuner
Autoscroll
slow
fast
+/-
esc
set tempo
stop
Help us to improve Ultimate-Guitar.com Take our survey!
×
Author
Difficulty
Tuning
novice
D A D G B E
Here Comes Vi
(NOT 100% SURE ABOUT ANY PART)

Drop D Tunning

Tab by Daniel Takashi Ueno

Intro:
  * * * * *  * * * * *   * * * * * * *         
E|--------------------------------------|
B|--------------------------------------|
G|--------------------------------------|
D|--------------------------------------|
A|1/2-2-2-2--1/2-2-2-2--/6-6-6-6-6-6-6--|
D|1/2-2-2-2--1/2-2-2-2--/6-6-6-6-6-6-6--|

  * * * * *  * * * * *   * * * * * * *
E|--------------------------------------|
B|--------------------------------------|
G|--------------------------------------|
D|--------------------------------------|
A|1/2-2-2-2--1/2-2-2-2--/3-3-3-3-3-3-3--|
D|1/2-2-2-2--1/2-2-2-2--/3-3-3-3-3-3-3--|
         
E|--------------------------------------|
B|--------------------------------------|
G|--------------------------------------|
D|--------------------------------------|
A|1/2-2-2-2--1/2-2-2-2--/6-6-6-6-6-6-6--|
D|1/2-2-2-2--1/2-2-2-2--/6-6-6-6-6-6-6--|


E|--------------------------------------|
B|--------------------------------------|
G|--------------------------------------|
D|--------------------------------------|
A|1/2-2-2-2--1/2-2-2-2--/3-3-3-3-3-3-3--|
D|1/2-2-2-2--1/2-2-2-2--/3-3-3-3-3-3-3--|



She's such a misfit~

E|----------------------------------------------|
B|----------------------------------------------|
G|----------------------------------------------|
D|1/2-2-2-2--1~2-2-2-2--/6-6-6-6-6-6-6-6--------|
A|1/2-2-2-2--1~2-2-2-2--/6-6-6-6-6-6-6-6--------|
D|1/2-2-2-2--1~2-2-2-2--/6-6-6-6-6-6-6-6--------|
                                                         4x
E|----------------------------------------------|
B|----------------------------------------------|
G|----------------------------------------------|
D|1/2-2-2-2--1/2-2-2-2--/3-3-3-3-3-3-3-3--------|
A|1/2-2-2-2--1/2-2-2-2--/3-3-3-3-3-3-3-3--------|
D|1/2-2-2-2--1/2-2-2-2--/3-3-3-3-3-3-3-3--------|

She'll knock you out~

E|--4-4-4-4-4~---4-4-4-4-4~---------------------|        2x
B|----------------------------------------------|
G|----------------------------------------------|
D|----------------------------------------------|
A|----------------------------------------------|
D|----------------------------------------------|

Have you ever really wanted to be~
    + 
E|----------------------------------------------------|  3x
B|----------------------------------------------------|
G|----------------------------------------------------|
D|-(2)--9/7-7-7---7-7-7--5-5-5-5-5-5-5-5/7-7-7-7-7-7--|
A|-(2)--7/5-5-5---5-5-5--5-5-5-5-5-5-5-5/7-7-7-7-7-7--|
D|-(2)-------------------5-5-5-5-5-5-5-5/7-7-7-7-7-7--|


She's Here. Here comes Vi~
    +
E|----------------------------------------------------|
B|----------------------------------------------------|
G|----------------------------------------------------|
D|-(2)--9/7-7-7---7-7-7--5-5-5-5-5-5-5-5-3-3-7-7------|
A|-(2)--7/5-5-5---5-5-5--5-5-5-5-5-5-5-5-3-3-7-7------|
D|-(2)-------------------5-5-5-5-5-5-5-5-3-3-7-7------|


And as a matter of fact~ 
NOTE: You can also slide instead of a hammer-on.

  * * * * *  * * * * *   * * * * * * *         
E|--------------------------------------|
B|--------------------------------------|
G|--------------------------------------|
D|--------------------------------------|
A|1h2-2-2-2--1h2-2-2-2--/6-6-6-6-6-6-6--|
D|1h2-2-2-2--1h2-2-2-2--/6-6-6-6-6-6-6--|

  * * * * *  * * * * *   * * * * * * *
E|--------------------------------------|
B|--------------------------------------|
G|--------------------------------------|
D|--------------------------------------|
A|1h2-2-2-2--1h2-2-2-2--/3-3-3-3-3-3-3--|
D|1h2-2-2-2--1h2-2-2-2--/3-3-3-3-3-3-3--|

  * * * * *  * * * * *   * * * * * * *         
E|--------------------------------------|
B|--------------------------------------|
G|--------------------------------------|
D|--------------------------------------|
A|1h2-2-2-2--1h2-2-2-2--/6-6-6-6-6-6-6--|
D|1h2-2-2-2--1h2-2-2-2--/6-6-6-6-6-6-6--|

  * * * * *  * * * * *   
E|---------------------------------------|
B|---------------------------------------|
G|---------------------------------------|
D|---------------------------------------|
A|1h2-2-2-2--1h2-2-2-2--3-3--------------|
D|1h2-2-2-2--1h2-2-2-2--3-3--------------|


E|---------------------------------------|
B|---------------------------------------|
G|--9/4--/8-8-8-8-8-8--9/4--/5-5-5-5-5-5-|
D|---------------------------------------|
A|--7/2--/6-6-6-6-6-6--7/2--/3-3-3-3-3-3-|
D|---------------------------------------|


"Have you ever really wanted to be" part again.
And repeat some parts...


Outro/End:
E|----------------------------------------------|
B|----------------------------------------------|
G|----------------------------------------------|
D|-1-2-2--1-2-2--1-2-2--1-2-2--6-5-3-2-2~-------|
A|-1-2-2--1-2-2--1-2-2--1-2-2--6-5-3-2-2~-------|
D|-1-2-2--1-2-2--1-2-2--1-2-2--6-5-3-2-2~-------|
                                     !


+ = You can pick few times or you can just let it ring
* = Palm Mute
! = Not sure about this, but you'll figure out
Suggest correction
comments
print report bad tab
1 comment total.
0 reply
adimitrov23 10 wrote on August 20 2014, 02:55 pm

Lack of accuracy.

guest
You may want to rate the tab now too:
select rating
Wanna post a correction for this tab? Suggest correction