Oops, an error
Loading. Please wait.

Nico And The Band - Baby Steps Bass Tab

100 views 1 this week
no commentswrite comment
1 2 3 4 5
please rate
add to favorites
launch autoscroll
font size
0
reset
guitar tuner
Tab Pro tools
  • play this tab
  • loop segment
  • change instrument
  • show fretboard
  • metronome
×
Best way to learn
"Nico And The Band - Baby Steps"
Autoscroll
slow
fast
+/-
esc
set tempo
stop
Contributor
-------------------------------------------------------------------------------
			     BABY STEPS - Nico & Co
-------------------------------------------------------------------------------

Tabbed By : Palodigon
e-mail: Nico.bosmans@hotmail.com

Tuning: EADG (standard)


intro:
G|---------------------------------------------------------------------------|
D|---------------------------------------------------------------------------|
A|--------3--3------------5--5-----------------------------------------------|
E|--0--0------------0--0-----------------------------------------------------|


chorus:
G|------------8---------------------8----------------------------------------|
D|-------8-10---8-6-8----------8-10---8-6-8----------------------------------|
A|--6-10------------------6-10-----------------------------------------------|
E|---------------------------------------------------------------------------|

G|---------------------------------------------------------------------------|
D|------------8---------------------8----------------------------------------|
A|-------8-10---10-8-10--------8-10---10-8-10--------------------------------|
E|--6-10------------------6-10-----------------------------------------------|


outro:
G|---------------------------------------------------------------------------|
D|---------------------------------------------------------------------------|
A|--------5---------3-4-5----------------------------------------------------|
E|--5h7-7---5-----0-------0--------------------------------------------------|


| /  slide up
| \  slide down
| h  hammer-on
| p  pull-off
| ~  vibrato
| +  harmonic
| x  Mute note
===============================================================================
comments
We did not receive enough feedback on this tab! Please rate:
print report bad tab
1 2 3 4 5
I want to post or [tab]
guest
You may want to rate the tab now too:
select rating
Please do not post tabs as comments. Select "correction" instead!