Oops, an error
Loading. Please wait.

Nicole Hyala - Mahal Kita Kasi Tab

3,948 views 1 this week
no commentswrite comment
1 2 3 4 5
please rate
add to favorites
launch autoscroll
font size
0
reset
how to read this tab
guitar tuner
Autoscroll
slow
fast
+/-
esc
set tempo
stop
Help us to improve Ultimate-Guitar.com Take our survey!
×
Author
Difficulty
novice
WOw! This is my first tab after a looooong time. Anyway, this is a corny love song.

-------------------------------------------------------------------------------
Mahal Kita Kasi - Nicole Hyala
-------------------------------------------------------------------------------

*NOTE:

a.)This song is actually played on a uke. but i've tabbed it so in case you haven't one, 
it on the guitar! (preferably nylon-stringed)

b.)Figure out the strumming out by yourself (i'll just write it on the first parts)

c.) Also, figure out the pattern by yourself, i'm just giving the notes. ;))

happy <3's day!

v - strum down
^ - strum up

Intro: B-Cm-F#
   v ^ v ^ v ^ v ^ v  v
e|-7-7-7-7-9-9-9-9-6--6--|
b|-7-7-7-7-9-9-9-9-7--7--|
g|-8-8-8-8-9-9-9-9-6--6--| 2x
d|-----------------------|
a|-----------------------|
e|-----------------------|

Verse:
a.) B-G#m-E-F#
   v ^ v ^ v ^ v ^ v ^ v ^ v ^ v ^
e|-7-7-7-7---------7-7-7-7-6-6-6-6-|
b|-7-7-7-7-9-9-9-9-9-9-9-9-7-7-7-7-|
g|-8-8-8-8-8-8-8-8-9-9-9-9-6-6-6-6-|
d|---------6-6-6-6-----------------| ?x
a|---------------------------------|
e|---------------------------------|
b.) G#m-B-E-F#
e|-----------------7-7-7-7-7-7-7-7-7-7-7-7-7-7-7-7-6-6-6-6-6-6-6-6-|
b|-9-9-9-9-9-9-9-9-7-7-7-7-7-7-7-7-9-9-9-9-9-9-9-9-7-7-7-7-7-7-7-7-|
g|-8-8-8-8-8-8-8-8-8-8-8-8-8-8-8-8-9-9-9-9-9-9-9-9-6-6-6-6-6-6-6-6-|
d|-6-6-6-6-6-6-6-6-------------------------------------------------| 1x
a|-----------------------------------------------------------------|
e|-----------------------------------------------------------------|
c.) B-G#m-E-F#
e|-7-7-7-7---------7-7-7-7-6--|
b|-7-7-7-7-9-9-9-9-9-9-9-9-7--|
g|-8-8-8-8-8-8-8-8-9-9-9-9-6--|
d|---------6-6-6-6------------| 1x
a|----------------------------|
e|----------------------------|

Chorus:
a.) B--B-F#-E-F#
e|-7-7-7-7-7-7-7-7-7-7-7-7-7--6--7-7-7-7-7-7-7-7-6-6-6-6-6-6-6-6-|
b|-7-7-7-7-7-7-7-7-7-7-7-7-7--7--9-9-9-9-9-9-9-9-7-7-7-7-7-7-7-7-|
g|-8-8-8-8-8-8-8-8-8-8-8-8-8--6--9-9-9-9-9-9-9-9-6-6-6-6-6-6-6-6-|
d|---------------------------------------------------------------| 2x
a|---------------------------------------------------------------|
e|---------------------------------------------------------------|
b.) G#m-B-E-F#
e|-----------------7-7-7-7-7-7-7-7-7-7-7-7-7-7-7-7-6--6---6-|
b|-9-9-9-9-9-9-9-9-7-7-7-7-7-7-7-7-9-9-9-9-9-9-9-9-7--7---7-|
g|-8-8-8-8-8-8-8-8-8-8-8-8-8-8-8-8-9-9-9-9-9-9-9-9-6--6---6-|
d|-6-6-6-6-6-6-6-6------------------------------------------| 1x
a|----------------------------------------------------------|
e|----------------------------------------------------------|

That's it! Just figure out the pattern by yourselves.
In the part that the song changes key, just go up 2 frets. :D

~naman kasi~
Suggest correction
What's this?
You can suggest a correction to this tab. Community and Mods will review your correction and vote to approve or reject it.
comments
We did not receive enough feedback on this tab! Please rate:
print report bad tab
1 2 3 4 5
guest
You may want to rate the tab now too:
select rating
Please do not post tabs as comments. Select "correction" instead!