Oops, an error
Loading. Please wait.

Nightfist - Chapter 4 Arabian Gunparty Tab

320 views 1 this week
no commentswrite comment
1 2 3 4 5
please rate
add to favorites
launch autoscroll
font size
0
reset
how to read this tab
guitar tuner
Tab Pro tools
  • play this tab
  • loop segment
  • change instrument
  • show fretboard
  • metronome
×
Best way to learn
"Nightfist - Chapter 4 Arabian Gunparty"
Autoscroll
slow
fast
+/-
esc
set tempo
stop
Difficulty
intermediate
nightfist website:http://www.temporaryresidence.com/bands/nightfist.php
nightfist myspace: http://www.myspace.com/nightfistnightfist
hey everyone. I have been looking for tabs by these guys everywhere and i cant find em.
not so well known cause there from Menlo Park, CA. which is around where im from. there
awesome band i suggest u check em out on itunes. this is also a sweet song by them. i 
my best to do the rhythm guitar but the lead was hard to get. but the rhythm  is just
cool. also remember that this took me almost 5 hrs to fricken tab and figure it out. so 
with me. it mite not be the greatest

Tuning: Standard

/=slide
.=palm mute
b=bend
h=hammer-on
p=pull off

intro is only synth. until the end.

END OF INTRO
e|----------------------------------------------------------------------------|
B|----------------------------------------------------------------------------|
G|-----1/14---12h14--16---14h16--16b-14---------------------------------------|
D|----------------------------------------------------------------------------|
A|----------------------------------------------------------------------------|
E|----------------------------------------------------------------------------|

e|----------------------------------------------------------------------------|
B|----------------------------------------------------------------------------|
G|----------------------------------------------------------------------------|
D|----------------------------------------------------------------------------|
A|--7--777--777--777--777--777--777--777--777--777--777--777--77--------------|
E|----------------------------------------------------------------------------|
         .      . . .      . . .      . . .    . . .       . . .      . . .     . . .
. . .      . . .      . . .     . . .      . .

e|---------------------|
B|---------------------|
G|---------------------|
D|---------------------|
A|--7--5---------------|
E|--------8--7---------|

e|----------------------------------------------------------------------------|
B|----------------------------------------------------------------------------|
G|----------------------------------------------------------------------------|
D|----------------------------------------------------------------------------|
A|----------------------------------------------------------------------------|
E|--777--777--777--777--777--777--777--777--777--777--777--77-----------------|
         . . .      . . .     . . .     . . .     . . .       . . .     . . .      . . . 
    . . .      . . .     . . .     . .

*************************REPEAT IN BETWEEN STARS 3TIMES************

e|--------------|
B|--------------|
G|--------------|
D|-----------9--|
A|--------5--7--|
E|--7--8--------|

e|--------------------------------------------------------------------|
B|--------------------------------------------------------------------|
G|--------------------------------------------------------------------|
D|---------------9/10--9---------------9/10-9-------------------------|
A|--7--777--777--7/8---7--7--777--777--7/8--7--7--777-777-777---------|
E|--------------------------------------------------------------------|
          .    . . .     . . .                             .    . . .       . . .
              .       . . .   . . .  . . .

e|----------------------|
B|----------------------|
G|----------------------|
D|--9--7----------------|
A|--7--5--10--9---------|
E|---------8--7---------|

e|-------------------------------------------------------------------|
B|-------------------------------------------------------------------|
G|-------------------------------------------------------------------|
D|-------------------------------------------------------------------|
A|---------------9/10--9---------------9/10--9-----------------------|
E|--7--777--777--7/8---7--7--777--777--7/8---7--7-777-777--777-------|
        .      . . .     . . .                            .     . . .     . . .
                 .   . . .  . . .      . . .
*************************************BACK TO STARS AT TOP***********

******* play 2x time dont let the notes ring out play again 2x but let notes ring****
e|----------------------------------------------------------------------------|
B|----------------------------------------------------------------------------|
G|----------------------------------------------------------------------------|
D|------------7---------------------------------------------------------------|
A|--7----10-9-----7--9--10--9--7-----7-10-9---7-9-10-9----7-------------------|
E|-----------------------------------------------------10---------------------|

AT THE END OF SECOND TIME!!!! let notes ring
e|-------------------------|
B|-------------------------|
G|-------------------------|
D|----------7-----------7--|
A|--7--10-9----7--9--10----|
E|-------------------------|
**********************************************************************************

e|----------------------------------------------------------------------------|
B|----------------------------------------------------------------------------|
G|----------------------------------------------------------------------------|
D|----------------------------------------------------------------------------|
A|----------------------------------------------------------------------------|
E|-777-777-777-777-777-777-777-777-777-777-777-777-777-777-777-777------------|
         . . .      . . .     . . .     . . .     . . .       . . .     . . .      . . .
    . . .      . . .     . . .     . ..      ....


***repeat 2x**********the 1-5 stretch is hard but sounds better than 1 and open A******
e|----------------------------------------------------------------------------|
B|----------------------------------------------------------------------------|
G|----------------------------------------------------------------------------|
D|----------------------------------------------------------------------------|
A|-----7-5------7-5----------7-5----------------------------------------------|
E|-0-------8--0-----8p7h8--0-----8---1--5---1-5-1-5-1-------------------------|

e|----------------------------------------------------------------------------|
B|----------------------------------------------------------------------------|
G|----------------------------------------------------------------------------|
D|----------------------------------------------------------------------------|
A|----7-5------7-5----------7-5-----------------------------------------------|
E|-0------8--0-----8p7h8--0-----8--0--1--3--5---------------------------------|
**********************************************************************************

*************************repeat 2x**********
e|--------------|
B|--------------|
G|--------------|
D|-----------9--|
A|--------5--7--|
E|--7--8--------|

e|--------------------------------------------------------------------|
B|--------------------------------------------------------------------|
G|--------------------------------------------------------------------|
D|---------------9/10--9---------------9/10-9-------------------------|
A|--7--777--777--7/8---7--7--777--777--7/8--7--7--777-777-777---------|
E|--------------------------------------------------------------------|
          .    . . .     . . .                             .    . . .       . . .
              .       . . .   . . .  . . .

e|----------------------|
B|----------------------|
G|----------------------|
D|--9--7----------------|
A|--7--5--10--9---------|
E|---------8--7---------|

e|-------------------------------------------------------------------|
B|-------------------------------------------------------------------|
G|-------------------------------------------------------------------|
D|-------------------------------------------------------------------|
A|---------------9/10--9---------------9/10--9-----------------------|
E|--7--777--777--7/8---7--7--777--777--7/8---7--7-777-777--777-------|
        .      . . .     . . .                            .     . . .     . . .
                 .   . . .  . . .      . . .
**********************************************************************************

*********************repeat 16x***********
e|-----------------------------------------------------|
B|-----------------------------------------------------|
G|-----------------------------------------------------|
D|---------------7-------------------------------------|
A|--7--10-7-9-10----7--10-7-9--------------------------|
E|----------------------------10-----------------------|

*************************use this on the 14 time*********
e|-----------------------------------------------------|
B|-----------------------------------------------------|
G|-----------------------------------------------------|
D|---------------7-------------------------------------|
A|--7--10-7-9-10----7--10-7-9--------------------------|
E|----------------------------10-10--------------------|
******************************************************************************
from 4:06-5:06 i will not tab because i do not want to figure it out. its taken me too
hours to figure out this song u can live without one wee little part figure it out urself
i will eventually

5:07
e|-----------------------------------------------------|
B|-----------------------------------------------------|
G|-----------------------------------------------------|
D|---------------7-------------------------------------|
A|--7--10-7-9-10----7--10-7-9--------------------------|
E|----------------------------10-----------------------|

synth solo thing

***************repeat 2x****************************
e|------------------------------------------|
B|------------------------------------------|
G|------------------------------------------|
D|------------------------------------------|
A|--22--2--22--2--22--2---------------------|
E|--00--0--00--0--00--0---------------------|
         . .             . .              . .
********************************************************

*****************repeat 8x************************
e|-------------------------------------------------|
B|-------------------------------------------------|
G|-------------------------------------------------|
D|-------------------------------------------------|
A|-------------------------------------------------|
E|-0--2-3-0--3-5-0--2-3-5-3-2-3--------------------|
 ************************************************************

**************************************************************************************************
e|----------------------------------------------------------------------------|
B|----------------------------------------------------------------------------|
G|----------------------------------------------------------------------------|
D|----------------------------------------------------------------------------|
A|---9-9-9---9-9-9---9-9-9---9-9-9-9-9-9-9---9-9-9---9-9-9---9-9-9-9----------|
E|---7-7-7---7-7-7---7-7-7---7-7-7-7-7-7-7---7-7-7---7-7-7---7-7-7-7----------|
**************************************************************************************************

e|------------------------------------------------------------------------|
B|------------------------------------------------------------------------|
G|------------------------------------------------------------------------|
D|--9----------------9/10--9---------------9/10-9-------------------------|
A|--7---7--777--777--7/8---7--7--777--777--7/8--7--7--777-777-777---------|
E|------------------------------------------------------------------------|
          .    . . .     . . .                             .    . . .       . . .
              .       . . .   . . .  . . .

e|----------------------|
B|----------------------|
G|----------------------|
D|--9--7----------------|
A|--7--5--10--9---------|
E|---------8--7---------|

e|-------------------------------------------------------------------|
B|-------------------------------------------------------------------|
G|-------------------------------------------------------------------|
D|-------------------------------------------------------------------|
A|---------------9/10--9---------------9/10--9-----------------------|
E|--7--777--777--7/8---7--7--777--777--7/8---7--7-777-777--777-------|
        .      . . .     . . .                            .     . . .     . . .
                 .   . . .  . . .      . . .

after this it does some ending i cant figure out.
thx for lookin at this tab plz rate
comments
We did not receive enough feedback on this tab! Please rate:
print report bad tab
1 2 3 4 5
I want to post or [tab]
guest
You may want to rate the tab now too:
select rating
Please do not post tabs as comments. Select "correction" instead!