Oops, an error
Loading. Please wait.

Nightmare Before Christmas - Kidnap Mr Sandy Klaws Tab

7,786 views 15 this week
no commentswrite comment
1 2 3 4 5
2 more votes to show rating
add to favorites
launch autoscroll
font size
0
reset
how to read this tab
guitar tuner
Autoscroll
slow
fast
+/-
esc
set tempo
stop
Help us to improve Ultimate-Guitar.com Take our survey!
×
Author
Difficulty
intermediate
-------------------------------------------------------------------------------
            Kidnap Mr. Sandy Klaws - Nightmare Before Christmas
-------------------------------------------------------------------------------
Tabbed by: Alex D.
Email: alleycat_on_the_run@hotmail.com

Tuning: Normal

It's right. Trust me.

e|---------------------------------------------------------------------------|
B|---11--11------------------------------------------------------------------|
G|----8-9-8-9-8-9-8-9--------------------------------------------------------|
D|--------------------1-2-1-2-1-2-1-2-1-2-1-2-1------------------------------|
A|------------10--10----------------------------4-2-1------------------------|
E|---------------------------------------------------------------------------|

e|-----------------------------------------------------------------------------|
B|-----------------------------------------------------------------------------|
G|----------------------------------------------------------------0------------|
D|------------------------1-2-1-----------------1-------------2-4---2----------|
A|------1-2---1-2-4-1-2-4-------4-2-1-2---1-2-1-----1-2-----2------------------|
E|----4-----4---------------------------4---------3-----0-3--------------------|

e|----------------------4---5---6---3---0---3---0------------------------------|
B|------------------4---5---5---6---3---0---4---1------------------------------|
G|--------------0-3-----6---6---6---3---0---5---1------------------------------|
D|------1-2---1---------6---7---8---5---2---5---2------------------------------|
A|----4-----4-----------4---7---8---5---2---3---0------------------------------|
E|----------------------x---5---6---3---0---x---x------------------------------|


| x  Mute note
===============================================================================
Suggest correction
Give kudos to tab author, rate the tab!
1 2 3 4 5
comments
print report bad tab
guest
You may want to rate the tab now too:
select rating
Wanna post a correction for this tab? Suggest correction