Oops, an error
Loading. Please wait.

Ninjakitty - Ambient Textures Tab

1 view 1 this week
no commentswrite comment
1 2 3 4 5
3 more votes to show rating
add to favorites
launch autoscroll
font size
0
reset
how to read this tab
guitar tuner
Autoscroll
slow
fast
+/-
esc
set tempo
stop
Help us to improve Ultimate-Guitar.com Take our survey!
×
Author
Difficulty
Tuning
Capo
intermediate
C G C F A D
2nd fret
About this tab version
The only version written by myself. Was this info helpful? Yes No
These tabs were changed a half step up by a mod theyre right but a half step up so if you have a hard time 
hearing either tune up half a step or convert half a step down im sorry for the inconvenience 

D:--------------------------------------------------|
A:--------------------------------------------------|
F:--------------------------------------------------|
C:-----2---------2-----------2-----2-----2-----2----|
G:---2---2-----2---2---2---2---2-----2-----2-----2--|
C:-2-------4-5-------5---7-------7-----7-----7------|X2

D:---------------------------------x----------------|
A:---------------------------------2----------------|
F:---------------------------------2----------------|
C:-----4---------5-----------7-----7/0--------------|
G:---2---2-----5---5---5---5---5---------5-4-2------|
C:-2-------4-5-------5---7-------7-----7-------5-4--|X4

D:----------------------------------------------|
A:----------------------------------------------|
F:----------------------------------------------|
C:-----4---------4-----------4---------4--------|
G:---2---2-----5---5---5---5---5-----5---5---5--|
C:-2-------4-5-------5---7-------7-5-------5----|X4

D:---------------------------------x----------------|
A:---------------------------------2----------------|
F:---------------------------------2----------------|
C:-----4---------5-----------7-----7/0--------------|
G:---2---2-----5---5---5---5---5---------5-4-2------|
C:-2-------4-5-------5---7-------7-----7-------5-4--|X4

D:------------------------------|
A:------------------------------|
F:------------------------------|
C:-----4-----4-----4-----5-4-2--|
G:---2---2-----2-----2----------|
C:-2-------2-----2-----2--------|X3

D:--------------------|
A:--------------------|
F:--------------------|
C:-----2-----2-----7--|
G:---2---2-----2------|
C:-2-------2-----2----|

D:--------------------------------------|
A:--------------------------------------|
F:--------------------------------------|
C:-----4-----4-----4-----4-----5-4------|
G:---2---5-----5-----5-----5-------5-4--|
C:-2-------2-----2-----2-----2----------|X4

D:-----------------------------------|
A:-----------------------------------|
F:-----4-----5-----4-----------------|
C:---2---2-----2-----2---2-5-4-------|
G:-----------------------------5/7---|
C:-2-------2-----2-----2-------------|X3

D:----------------------------------|
A:----------------------------------|
F:-----4-----5-----7----------------|
C:---2---2-----2-----2---2-5-4------|
G:-----------------------------5/7--|
C:-2-------2-----2-----2------------|

D:----------------------------------------------------------------|
A:----------------------------------------------------------------|
F:-----4-----5-----4-------------------4-----5-----7--------------|
C:---2---2-----2-----2---2-5-4-------2---2-----2-----2---5-4------|
G:-----------------------------5/7---------------------------5/7--|
C:-2-------2-----2-----2-----------2-------2-----2-----2----------|

D:------------------------------------------------------------------------|
A:------------------------------------------------------------------------|
F:-----4-----5-----4-------------------4-----5-----2----------------------|
C:---2---2-----2-----2---2-5-4-------2---2-----2-----2---4-5--------------|
G:-----------------------------5/7---------------------------5-4----5--2--|
C:-2-------2-----2-----2-----------2-------2-----2-----2---------7--5--2--|



************************************

| x  Dead note
| /  Slide up

************************************
Suggest correction
Give kudos to tab author, rate the tab!
1 2 3 4 5
comments
print report bad tab
guest
You may want to rate the tab now too:
select rating
Wanna post a correction for this tab? Suggest correction