Oops, an error
Loading. Please wait.

Ninjakitty - Free The Dead Tab

4 views 3 this week
no commentswrite comment
1 2 3 4 5
3 more votes to show rating
add to favorites
launch autoscroll
font size
0
reset
how to read this tab
guitar tuner
Autoscroll
slow
fast
+/-
esc
set tempo
stop
Help us to improve Ultimate-Guitar.com Take our survey!
×
Author
Difficulty
Tuning
novice
D G C F A D
About this tab version
Tabs originally writen by myself as well as the lyrics in this piece. Was this info helpful? Yes No
[Intro]
D|------------------------------------------------------------------------------------------|
A|---0---0---0---0-----0-----0-----0-----0-----0-----0-----0-----0-----0-----0-----0-----0--|
F|-4---4---4---4-----4-----4-----4-----4-----4-----4-----4-----4-----4-----4-----4-----4----|
C|-----------------5-----5-----5-----5-----2-----2-----2-----2-----5-----5-----5-----5------|
G|------------------------------------------------------------------------------------------|
D|------------------------------------------------------------------------------------------|

D|--------------------------|
A|-----0-----0-----0-----0--|
F|---4-----4-----4-----4----|
C|-2-----2-----2-----2------|
G|--------------------------|
D|--------------------------|

[Verse]
    
im set free 
D|--------------------------------------------------|
A|-----0-----0-----0-----0-----0-----0-----0-----0--|
F|---4-----4-----4-----4-----4-----4-----4-----4----|
C|-5-----5-----5-----0-----2-----2-----2-----2------|
G|--------------------------------------------------|
D|--------------------------------------------------|

im set free 
D|--------------------------------------------------|
A|-----0-----0-----0-----0-----0-----0-----0-----0--|
F|---4-----4-----4-----4-----4-----4-----4-----4----|
C|-5-----5-----5-----0-----2-----2-----2-----2------|
G|--------------------------------------------------|
D|--------------------------------------------------|

the road has been set before me
D|--------------------------------------------------|
A|-----0-----0-----0-----0-----0-----0-----0-----0--|
F|---4-----4-----4-----4-----4-----4-----4-----4----|
C|-0-----0-----0-----5-----2-----2-----2-----2------|
G|--------------------------------------------------|
D|--------------------------------------------------|

now im on my way back home
D|-----------------------------------|
A|-----0-----0-----0------0-----0----|
F|---4-----4-----4------4-----4------|
C|-0-----0-----0---------------------|
G|--------------------2-----3-----3--|
D|-----------------------------------|

where i should be
D|--------------|
A|-----0-----0--|
F|--------------|
C|---4-----5----|
G|--------------|
D|-2-----3------|

[Break]
D|--------------------------------------------------|
A|-----0-----0-----0-----0-----0-----0-----0-----0--|
F|---4-----4-----4-----4-----4-----4-----4-----4----|
C|-5-----5-----5-----5-----2-----2-----2-----2------|
G|--------------------------------------------------|
D|--------------------------------------------------|X2

[Verse 2]

my mom once said
D|--------------------------------------------------|
A|-----0-----0-----0-----0-----0-----0-----0-----0--|
F|---4-----4-----4-----4-----4-----4-----4-----4----|
C|-5-----5-----5-----0-----2-----2-----2-----2------|
G|--------------------------------------------------|
D|--------------------------------------------------|

my mom once said
D|--------------------------------------------------|
A|-----0-----0-----0-----0-----0-----0-----0-----0--|
F|---4-----4-----4-----4-----4-----4-----4-----4----|
C|-5-----5-----5-----0-----2-----2-----2-----2------|
G|--------------------------------------------------|
D|--------------------------------------------------|

you have to let the living go their dead
D|--------------------------------------------------|
A|-----0-----0-----0-----0-----0-----0-----0-----0--|
F|---4-----4-----4-----4-----4-----4-----4-----4----|
C|-0-----0-----0-----5-----2-----2-----2-----2------|
G|--------------------------------------------------|
D|--------------------------------------------------|

you cant hold them back
D|-----------------------------------|
A|-----0-----0-----0------0-----0----|
F|---4-----4-----4------4-----4------|
C|-0-----0-----0---------------------|
G|--------------------2-----3-----3--|
D|-----------------------------------|

dont trap the dead
D|--------------|
A|-----0-----0--|
F|--------------|
C|---4-----5----|
G|--------------|
D|-2-----3------|

[Chorus]
D|--------------------------------------------------------------------------------------------------|
A|-----3-----3-----3-----3-----3-----3-----3-----3-----3-----3-----3-----3-----3-----3-----3-----3--|
F|---4-----4-----4-----4-----4-----4-----4-----4-----4-----4-----4-----4-----4-----4-----4-----4----|
C|-5-----5-----5-----5-----0-----0-----0-----0------------------------------------------------------|
G|-------------------------------------------------2-----2-----2-----2-----3-----3-----3-----3------|
D|--------------------------------------------------------------------------------------------------|X2

[Break]
D|--------------------------------------------------|
A|-----0-----0-----0-----0-----0-----0-----0-----0--|
F|---4-----4-----4-----4-----4-----4-----4-----4----|
C|-5-----5-----5-----5-----2-----2-----2-----2------|
G|--------------------------------------------------|
D|--------------------------------------------------|X2

[Verse 3]
you must stay
D|--------------------------------------------------|
A|-----0-----0-----0-----0-----0-----0-----0-----0--|
F|---4-----4-----4-----4-----4-----4-----4-----4----|
C|-5-----5-----5-----0-----2-----2-----2-----2------|
G|--------------------------------------------------|
D|--------------------------------------------------|

you must stay
D|--------------------------------------------------|
A|-----0-----0-----0-----0-----0-----0-----0-----0--|
F|---4-----4-----4-----4-----4-----4-----4-----4----|
C|-5-----5-----5-----0-----2-----2-----2-----2------|
G|--------------------------------------------------|
D|--------------------------------------------------|

im sorry to leave you here but i must go
D|--------------------------------------------------|
A|-----0-----0-----0-----0-----0-----0-----0-----0--|
F|---4-----4-----4-----4-----4-----4-----4-----4----|
C|-0-----0-----0-----5-----2-----2-----2-----2------|
G|--------------------------------------------------|
D|--------------------------------------------------|

im traveling far away
D|-----------------------------------|
A|-----0-----0-----0------0-----0----|
F|---4-----4-----4------4-----4------|
C|-0-----0-----0---------------------|
G|--------------------2-----3-----3--|
D|-----------------------------------|

but ill see you one day
D|--------------|
A|-----0-----0--|
F|--------------|
C|---4-----5----|
G|--------------|
D|-2-----3------|

[Break]
D|--------------------------------------------------|
A|-----0-----0-----0-----0-----0-----0-----0-----0--|
F|---4-----4-----4-----4-----4-----4-----4-----4----|
C|-5-----5-----5-----5-----2-----2-----2-----2------|
G|--------------------------------------------------|
D|--------------------------------------------------|X2

[Outro]

im set free 
D|--------------------------------------------------|
A|-----0-----0-----0-----0-----0-----0-----0-----0--|
F|---4-----4-----4-----4-----4-----4-----4-----4----|
C|-5-----5-----5-----0-----2-----2-----2-----2------|
G|--------------------------------------------------|
D|--------------------------------------------------|

im set free 
D|--------------------------------------------------|
A|-----0-----0-----0-----0-----0-----0-----0-----0--|
F|---4-----4-----4-----4-----4-----4-----4-----4----|
C|-5-----5-----5-----0-----2-----2-----2-----2------|
G|--------------------------------------------------|
D|--------------------------------------------------|
Suggest correction
Give kudos to tab author, rate the tab!
1 2 3 4 5
comments
print report bad tab
guest
You may want to rate the tab now too:
select rating
Wanna post a correction for this tab? Suggest correction