Oops, an error
Loading. Please wait.

Ninjakitty - Hate Half Whole Tab

10 views 1 this week
no commentswrite comment
1 2 3 4 5
3 more votes to show rating
add to favorites
launch autoscroll
font size
0
reset
how to read this tab
guitar tuner
Autoscroll
slow
fast
+/-
esc
set tempo
stop
Help us to improve Ultimate-Guitar.com Take our survey!
×
Author
About this tab version
Tabs originally written by myself. Was this info helpful? Yes No
E:--0--2--3-------3------3--2-------2-----2--0------0-----0--0-------0-|
B:------------0-----0-----------0-----0----------0----0----------0-----|
G:----------0---0-----0-------0---0-----0------0---0----0------0---0---|
D:--------2--------------2--0-------------0----------------------------|
A:--0--2-------------------------------------3------------3--3---------|
E:---------------------------------------------------------------------|

E:--0--2--3-------3------3--5-------5-----5--2-------2-----2--0-------|
B:------------0-----0-----------0-----0----------0-----0--------------|
G:----------0---0-----0-------0---0-----0------0---0-----0------------|
D:--------2--------------2--5-------------5--0-------------0----------|
A:--0--2------------------------------------------------------3-------|
E:--------------------------------------------------------------------| X2

E:------3---3-----------2---2-----------0---0-----------0---0---------|
B:----0---0---0-1/3---0---0---0-------0---0---0-------0---0---0-------|
G:--2---------------------------0---------------2-0-------------------|
D:------------------4-------------4-2---------------2-----------------|
A:--------------------------------------------------------------------|
E:--------------------------------------------------------------------|


E:--------3---3-----------2---2-----------0---0-----------0---0----------------3-------------2---|
B:----------0---0-1/3---0---0---0-------0---0---0-------0---0---0----------0-------------0-------|
G:------0--------------------------0---------------2-0-------------------0---0---------0---0-----|
D:--0-2----------------4-------------4-2---------------2-----------2-0-----------2-0-------------|
A:---------------------------------------------------------------------3-------------2-----------|
E:-----------------------------------------------------------------------------------------------|

E:------------0---0-----------2---2--------------3---3-----------5---------------|}}}
B:----------0---0---0-------0---0---0----------0---0---0-------0---0-------------|
G:--------------------0----------------------------------0-------------2--4--2---|
D:------0-2-------------2-0----------------0-2-------------2-5-------4----5--0---|
A:--0/3--------------------------------0/3---------------------------------------|
E:-------------------------------------------------------------------------------|

E:-----0---0-----------2---2--------------3---3-----------5----7---------------|
B:---0---0---0-------0---0---0----------0---0---0-------0---0----7-0-----------|
G:-------------0----------------------------------0------------------7-0-------|
D:-2-------------2-0----------------0-2-------------2-5------------------7-0---|
A:------------------------------0/3--------------------------------------------|
E:-----------------------------------------------------------------------------|}}}X2

E:-----0-------0-------0-------0-------0-------0-------0-------0-----|
B:---0---0---0---0---0---0---0---0---0---0---0---0---0---0---0---0---|
G:-------------------------------------------------------------------|
D:--2------2-------0-------0-----------------------------------------|
A:---------------------------------3-------3-------2-------2---------|
E:-------------------------------------------------------------------| X2

E:------0-------0-------0-------0-------0-------0--------0--------|
B:----0---0---0---0---0---0---0---0---0---0---0---0----0---0------|
G:----------------------------------------------------------------|
D:--2-------2-------7-------7-------9-------9-------12-------14---|
A:----------------------------------------------------------------|
E:----------------------------------------------------------------|X2

E:-----0-------0-------0-------0-------0-------0-------0-------0-----|
B:---0---0---0---0---0---0---0---0---0---0---0---0---0---0---0---0---|
G:-------------------------------------------------------------------|
D:--2------2-------0-------0-----------------------------------------|
A:---------------------------------3-------3-------2-------2---------|
E:-------------------------------------------------------------------| X2

E:------3---3-----------2---2-----------0---0-----------0---0---------|
B:----0---0---0-1/3---0---0---0-------0---0---0-------0---0---0-------|
G:--2---------------------------0---------------2-0-------------------|
D:------------------4-------------4-2---------------2-----------------|
A:--------------------------------------------------------------------|
E:--------------------------------------------------------------------|


E:--------3---3-----------2---2-----------0---0-----------0---0----------------3-------------2---|
B:----------0---0-1/3---0---0---0-------0---0---0-------0---0---0----------0-------------0-------|
G:------0--------------------------0---------------2-0-------------------0---0---------0---0-----|
D:--0-2----------------4-------------4-2---------------2-----------2-0-----------2-0-------------|
A:---------------------------------------------------------------------3-------------2-----------|
E:-----------------------------------------------------------------------------------------------|

E:------------0---0-----------2---2--------------3---3-----------5---------------|}}}
B:----------0---0---0-------0---0---0----------0---0---0-------0---0-------------|
G:--------------------0----------------------------------0-------------2--4--2---|
D:------0-2-------------2-0----------------0-2-------------2-5-------4----5--0---|
A:--0/3--------------------------------0/3---------------------------------------|
E:-------------------------------------------------------------------------------|

E:-----0---0-----------2---2--------------3---3-----------5----7---------------|
B:---0---0---0-------0---0---0----------0---0---0-------0---0----7-0-----------|
G:-------------0----------------------------------0------------------7-0-------|
D:-2-------------2-0----------------0-2-------------2-5------------------7-0---|
A:------------------------------0/3--------------------------------------------|
E:-----------------------------------------------------------------------------|}}}X2



************************************

| /  Slide up

************************************
Suggest correction
Give kudos to tab author, rate the tab!
1 2 3 4 5
comments
print report bad tab
guest
You may want to rate the tab now too:
select rating
Wanna post a correction for this tab? Suggest correction