Oops, an error
Loading. Please wait.

Ninjakitty - Just A Little Crazy tab

22 views 3 this week
no commentswrite comment
1 2 3 4 5
3 more votes to show rating
add to favorites
×
Save as Personal and add changes to this tab that will be seen only by you. Learn more ›
×
You can save this tab as Personal to edit and correct it or add notes. All changes will be seen only by you. Learn more »
launch autoscroll
font size
0
reset
how to read this tab
guitar tuner
edit
Autoscroll
slow
fast
+/-
esc
set tempo
stop
About this tab version
Only version tabs were written by myself. Was this info helpful? Yes No
the 4h5p2 and 5p4p0 in the verse and bridge is within 2 beats so itll be done slightly faster 

[Intro/Verse]
D|--------------------------------------------------------------------|
A|---2---2---2-------2---2---2-----------------------2---2---w--------|
F|---2---2---2-------2---2---2-------4---4---4-------2---2---2--------|
C|-4---4---4---4-2-0---0---0---------4---4---4-5-4---4---4---4--------|
G|-----------------------------5-4-2---2---2-------0---4---0---4h5p2--|
C|--------------------------------------------------------------------| X3

[Chorus]
D|----------------------------------|
A|----------------------------------|
F|---4---4---9---9---7---7----------|
C|---4---4---9---9---7---7---5---7--|
G|-2---2---7---7---5---5-----5---7--|
C|-------------------------5---7----| X2

[Bridge]
D|----------------------------------------------------------------------|
A|----------------------------------------------------------------------|
F|---4---4---4---------4---4---4---------4---4---4---------4---4---4-9--|
C|---4---4---4---------4---4---4---------4---4---4---------4---4---4-9--|
G|-2---2---2---5p4p0-2---2---2---5p4p0-2---2---2---5p4p0-2---2---2---7--|
C|----------------------------------------------------------------------|

[Verse]
D|--------------------------------------------------------------------|
A|---2---2---2-------2---2---2-----------------------2---2---w--------|
F|---2---2---2-------2---2---2-------4---4---4-------2---2---2--------|
C|-4---4---4---4-2-0---0---0---------4---4---4-5-4---4---4---4--------|
G|-----------------------------5-4-2---2---2-------0---4---0---4h5p2--|
C|--------------------------------------------------------------------| X2

[Chorus]
D|----------------------------------|
A|----------------------------------|
F|---4---4---9---9---7---7----------|
C|---4---4---9---9---7---7---5---7--|
G|-2---2---7---7---5---5-----5---7--|
C|-------------------------5---7----| X4

[Bridge]
D|----------------------------------------------------------------------|
A|----------------------------------------------------------------------|
F|---4---4---4---------4---4---4---------4---4---4---------4---4---4-9--|
C|---4---4---4---------4---4---4---------4---4---4---------4---4---4-9--|
G|-2---2---2---5p4p0-2---2---2---5p4p0-2---2---2---5p4p0-2---2---2---7--|
C|----------------------------------------------------------------------|

[Break]
D|---------------------------------------------------------------------------------------|)))
A|---------------------------------------------------------------------------------------|
F|-------------9/11----------------------------------------------------------------------|
C|---7---7---7------12----12----12----14-12-11----11----11----12-11-9----9----9----11-9--|
G|-9---9---9-----------14----14----14----------12----12----12---------10---10---10-------|
C|---------------------------------------------------------------------------------------| 

D|------------------------------------------------------------------|
A|------------------------------------------------------------------|
F|------------------------------------------------------------------|
C|---7---7---7-------7---7---7-------7---7---7-------7---7---7-9----|
G|-9---9---9---9-7-5---5---5---5-7-------------------------------7--|
C|---------------------------------7---7---7---7-9-6---6---6--------|)))X2

[Chorus]
D|----------------------------------|
A|----------------------------------|
F|---4---4---9---9---7---7----------|
C|---4---4---9---9---7---7---5---7--|
G|-2---2---7---7---5---5-----5---7--|
C|-------------------------5---7----| X4

[Bridge/Outro]
D|----------------------------------------------------------------------|
A|----------------------------------------------------------------------|
F|---4---4---4---------4---4---4---------4---4---4---------4---4---4-9--|
C|---4---4---4---------4---4---4---------4---4---4---------4---4---4-9--|
G|-2---2---2---5p4p0-2---2---2---5p4p0-2---2---2---5p4p0-2---2---2---7--|
C|----------------------------------------------------------------------|



**************************************************

h - hammer-on
p - pull off
/ - slide up

**************************************************

            
            
Suggest correction
Creating personal tab
Creating personal tab
You can edit any tab online and save it as your Personal.

You can edit, replace or remove any tab part or add personal notes – all changes will be seen only by you.

Personal tabs can be accessed anytime from any device, even offline.
Learn more »
Give kudos to tab author, rate the tab!
1 2 3 4 5
comments
print report bad tab
guest
You may want to rate the tab now too:
select rating
Wanna post a correction for this tab? Suggest correction