Oops, an error
Loading. Please wait.

Ninjakitty - Not Enough Tab

1 view 1 this week
no commentswrite comment
1 2 3 4 5
3 more votes to show rating
add to favorites
launch autoscroll
font size
0
reset
how to read this tab
guitar tuner
Autoscroll
slow
fast
+/-
esc
set tempo
stop
Help us to improve Ultimate-Guitar.com Take our survey!
×
Author
Difficulty
Tuning
novice
C G C F A D
About this tab version
The only version written by myself. Was this info helpful? Yes No
[Verse]
D:----------------------|
A:----------------------|
F:----------------------|
C:-----2-----4-5p4------|
G:---2-----5-------5/3--|
C:-2-----5--------------|X3

D:----------------------------------------|
A:----------------------------------------|
F:----------------------------------------|
C:-----3-----0-------3-----0-2h3p2--------|
G:---3-----0-------3-----0---------3/5----|
C:-3-----0-------3-----0---------------5--|

D:----------------------|
A:----------------------|
F:----------------------|
C:-----2-----4-5p4------|
G:---2-----5-------5/3--|
C:-2-----5--------------|X3

D:----------------------------------------|
A:----------------------------------------|
F:----------------------------------------|
C:-----3-----0-------3-----0-2h3p2--------|
G:---3-----0-------3-----0---------3/5----|
C:-3-----0-------3-----0---------------5--|X2

[Chorus]
D:-----------------|
A:-----------------|
F:-----------------|
C:-2-2x-4--7-7x-2--|
G:-2-2x-5--5-5x-3--|
C:-2-2x-5--5-5x-5--|X3

D:--------------|
A:--------------|
F:--------------|
C:-2-2x-4--2----|
G:-2-2x-5--3----|
C;-2-2x-5--5----|

(Verse) and then (Chorus) again

unfortunately i cant remember the solo or the exact rhythm of the solo
ill have to get back to finishing this another time but i hope this part
at least was fun to learn



************************************

| p  Pull-off
| /  Slide up
| h  Hammer-on
| x  Dead note

************************************
Suggest correction
Give kudos to tab author, rate the tab!
1 2 3 4 5
comments
print report bad tab
guest
You may want to rate the tab now too:
select rating
Wanna post a correction for this tab? Suggest correction