Oops, an error
Loading. Please wait.

Ninjakitty - Whores Dont Get Second Chances In This Town Pal Tab

4 views 1 this week
no commentswrite comment
1 2 3 4 5
3 more votes to show rating
add to favorites
launch autoscroll
font size
0
reset
how to read this tab
guitar tuner
Autoscroll
slow
fast
+/-
esc
set tempo
stop
Help us to improve Ultimate-Guitar.com Take our survey!
×
Author
Difficulty
Tuning
intermediate
C G C F A D
About this tab version
Only version tabs were written by myself. Was this info helpful? Yes No
D:---------------------------------------------------------------------------------------------|
A:---------------------------------------------------------------------------------------------|
F:---------------------------------------------------------------------------------------------|
C:-5/7-x77-x7-x77-xxxx-5/7-x77-x7-x55-x-xx-5/7-x77-x7-x77-xxxx-5/7--------------3-5-3-2-3-2----|
G:-3/5-x55-x5-x55-xxxx-3/5-x55-x5-x55-x-xx-3/5-x55-x5-x55-xxxx-3/5-55-8-7-5-3-5-------------3--|
C:---------------------------------------------------------------------------------------------|X2

D:----------------------------------------------|
A:----------------------------------------------|
F:----------------------------------------------|
C:-0-xx-3/5--0-xx-3-2--0-xx-3/5-----------------|
G:-0-xx-3/5--0-xx-3-2--0-xx-3/5--3/5-3----------|
C:-0-xx-3/5--0-xx-3-2--0-xx-3/5--------5h6p5-3--|X4

D:--------------------------------------------------------------------------|
A:--------------------------------------------------------------------------|
F:--------------------------------------------------------------------------|
C:-0-002-22-22-2222-5-557-77-77-7777-3-335-55-55-5555-2-222-xx-5577-5533-0--|
G:-0-000-00-00-0000-5-555-55-55-5555-3-333-33-33-3333-2-222-xx-3355-5533-0--|
C:-0-000-00-00-0000-5-555-55-55-5555-3-333-33-33-3333-2-222-xx------5533-0--|X2

(Repeat the above tabs once more)

D:---------------------------------------------------------------------------|
A:---------------------------------------------------------------------------|
F:---------------------------------------------------------------------------|
C:-0-xx---------0-3-2-0-xx---------0-3-2-0-xx---------0-3-2-0-xx5-x3-x2-3-0--|
G:-0-xx-3/5-----0-3-2-0-xx-3/5-----0-3-2-0-xx-3/5-----0-3-2-0-xx5-x3-x2-3-0--|
C:-0-xx-----4/6-0-3-2-0-xx-----4/6-0-3-2-0-xx-----4/6-0-3-2-0-xx5-x3-x2-3-0--|X2

D:--------------------------------------|
A:--------------------------------------|
F:--------------------------------------|
C:-0-xx-5/7-x5-x3-5-0-xx-5/7-x3-x5-3-2--|
G:-0-xx-3/5-x5-x3-5-0-xx-3/5-x3-x5-3-2--|
C:-0-xx-----x5-x3-5-0-xx-----x3-x5-3-2--|X4

D:--------------------------------------------------------------------------|
A:--------------------------------------------------------------------------|
F:--------------------------------------------------------------------------|
C:-0-002-22-22-2222-5-557-77-77-7777-3-335-55-55-5555-2-222-xx-5577-5533-0--|
G:-0-000-00-00-0000-5-555-55-55-5555-3-333-33-33-3333-2-222-xx-3355-5533-0--|
C:-0-000-00-00-0000-5-555-55-55-5555-3-333-33-33-3333-2-222-xx------5533-0--|X2



************************************

| x  Dead note
| /  Slide up
| h  Hammer-on
| p  Pull-off  

************************************
Suggest correction
Give kudos to tab author, rate the tab!
1 2 3 4 5
comments
print report bad tab
guest
You may want to rate the tab now too:
select rating
Wanna post a correction for this tab? Suggest correction