Oops, an error
Loading. Please wait.

Ninjakitty - Zoey P1 Tab

4 views 1 this week
no commentswrite comment
1 2 3 4 5
3 more votes to show rating
add to favorites
launch autoscroll
font size
0
reset
how to read this tab
guitar tuner
Autoscroll
slow
fast
+/-
esc
set tempo
stop
Help us to improve Ultimate-Guitar.com Take our survey!
×
Author
Difficulty
Tuning
intermediate
D G C F A D
About this tab version
Tabs originally writen by myself. Was this info helpful? Yes No
D:--------------------------------------------|
A:-2-------------------2----------------------|
F:---2/4---4-------------2/4---4--------------|
C:-------4---4-2/4-----------4---4-0-2/4------|
G:-2---------------5-2-------------------4-0--|
D:--------------------------------------------| X2

D:------------------------------------------------------------------------------------------------------|
A:------------------------------------------------------------------------------------------------------|
F:-----4-5/4---------7-------4-7/4-------------------4-5/4---------7---12-------------------9-11--------|
C:---5-------5/7---7---7---5-------7-5-4-----------5-------5/7---7---7-------10-12-10-9---7------12-9---|
G:-5-------------5-------5---------------7-4/5/4-5-------------5----------10------------7---------------|
D:------------------------------------------------------------------------------------------------------|

Repeat entire sequence once more



************************************

| /  Slide up

************************************
Suggest correction
Give kudos to tab author, rate the tab!
1 2 3 4 5
comments
print report bad tab
guest
You may want to rate the tab now too:
select rating
Wanna post a correction for this tab? Suggest correction