Oops, an error
Loading. Please wait.

Ninth Kingdom - Divination Of Self Part 1 tab

191 views 1 this week
no commentswrite comment
1 2 3 4 5
3 more votes to show rating
add to favorites
×
Save as Personal and add changes to this tab that will be seen only by you. Learn more ›
×
You can save this tab as Personal to edit and correct it or add notes. All changes will be seen only by you. Learn more »
launch autoscroll
font size
0
reset
how to read this tab
guitar tuner
edit
Autoscroll
slow
fast
+/-
esc
set tempo
stop
Author
Divination Of Self from the album "Where No Kings Shall Roam"
It's the most basic of what we play. We play little things to exaggerate the
notes.  It is difficult to tab out those little bits.


hear our music or drop by:
www.ninthkingdom.org
www.myspace.com/ninthkingdom
ninthkingdom@yahoo.com


Down tune 1 1/2 steps
6-C#       3-E
5-F#       2-G#
4-B        1-C#

R = Repeat

© copyright 2007


GTR 1&2 Riff 1
|---------------------------------------------------------------------------|
|---------------------------------------------------------------------------|
|---------------------------------------------------------------------------|
|---------------------------------------------------------------------------|
|-7-----------7-----------7-----------------------------------7-------------|
|-5 555-8877445-555-8877445-555-8877444455663355665-555-8877445-555-887744--|

|------------------------------------|| R=4x
|------------------------------------||
|------------------------------------||
|------------------------------------||
|-8-----8-----8-----8---8------------||
|-6-666-6-666-6-666-6---6------------||
    pm-   pm-   pm-

GTR 2 Riff 2
|------------------------------------------------------------------------|
|------------------------------------------------------------------------|
|-9-999-9-9--7-9-999-9-9-7--9-999-9-9-9-9-10-10-12-12-9-999-9-9-7-9-999--|
|-9-999-9-9--7-9-999-9-9-7--9-999-9-9-9-9-10101012-12-9-999-9-9-7-9-999--|
|-7-777-7-7--5-7-777-7-7-5--7-777-7-7-7-7-8-8-8-10-10-7-777-7-7-5-7-777--|
|-7-777-7-7--5-7-777-7-7-5--7-777-7-7-7-7-8-8-8-10-10-7-777-7-7-5-7-777--|


|-----------------------------------------|R=2x
|-9-9-7-6----7--6-----3----7--6--7--------|
|-9-9-7-6----7--6-----3----7--6--7--------|
|-7-7-5-4----5--4--0--1----5--4--5--------|
|-7-7-5-4----5--4--0--1----5--4--5--------|
             pm----|       p-----|
GTR 1 Riff 2
|-------------------------------------------------------------------------|
|-------------------------------------------------------------------------|
|-------------------------------------------------------------------------|
|-------------------------------------------------------------------------|
|-14-141414-14-14-12-14-141414-14-14-12-14-141414-14-14-14-14-15-15-15-17-|
|-12-121212-12-12-10-12-121212-12-12-10-12-121212-12-12-12-12-13-13-13-15-|

------------------------------------------------------------------------|R=2X
------------------------------------------------------------------------|
------------------------------------------6-----7--6-----3----7--6--7---|
------------------------------------------6-----7--6-----3----7--6--7---|
-17-17-141414-14-14-12-14-141414-14-14-12-4-----5--4--0--1----5--4--5---|
-15-12-121212-12-12-10-12-121212-12-12-10-4-----5--4--0--1----5--4--5---|
                                                p-----|       pm----|

GTR 2 Riff 3
|-----------------------------------------------------------------------|
|-----------------------------------------------------------------------|
|-------------4-4-4-4-4-4-5-5-5-5-5-5-7-7-7-7-7-7-2-2-2-2-2-2-4-4-4-4-4-|
|-2-2-2-2-2-2-4-4-4-4-4-4-5-5-5-5-5-5-7-7-7-7-7-7-2-2-2-2-2-2-4-4-4-4-4-|
|-2-2-2-2-2-2-2-2-2-2-2-2-3-3-3-3-3-3-5-5-5-5-5-5-2-2-2-2-2-2-2-2-2-2-2-|
|-0-0-0-0-0-0-2-2-2-2-2-2-3-3-3-3-3-3-5-5-5-5-5-5-0-0-0-0-0-0-2-2-2-2-2-|

-------------------------|| R=2x
-------------------------||
-5-5-5-5-5-5-3-3-3-3-3-3-||
-5-5-5-5-5-5-3-3-3-3-3-3-||
-3-3-3-3-3-3-1-1-1-1-1-1-||
-3-3-3-3-3-3-1-1-1-1-1-1-||

GTR 1 Riff 3
|-------------------------------------------------------------------------|
|-------------------------------------------------------------------------|
|-9-9-9-9-9-9-11111111111112-12-12-12-12-12-14-14-14-14-14-14-9-9-9-9-9-9-|
|-9-9-9-9-9-9-11111111111112-12-12-12-12-12-14-14-14-14-14-14-9-9-9-9-9-9-|
|-7-7-7-7-7-7-9-9-9-9-9-9-10-10-10-10-10-10-12-12-12-12-12-12-7-7-7-7-7-7-|
|-7-7-7-7-7-7-9-9-9-9-9-9-10-10-10-10-10-10-12-12-12-12-12-12-7-7-7-7-7-7-|

-------------------------------------------|| R=2x
-------------------------------------------||
-11111111111112-12-12-12-12-12-8-8-8-8-8-8-||
-11111111111112-12-12-12-12-12-8-8-8-8-8-8-||
-9-9-9-9-9-9-10-10-10-10-10-10-6-6-6-6-6-6-||
-9-9-9-9-9-9-10-10-10-10-10-10-6-6-6-6-6-6-||


GTR 2 Riff 4
|------------------------3------------------------2--2-|| R=4x
|-----------------------4-4-----------------------3--3-||
|----------------------5---5----------------------4--4-||
|---------------------5-----5---------------------4--4-||
|-2-----2-----2------3-------3--2-----2-----2-----2--2-||
|-0-000-0-000-0-000-3---------3-0-000-0-000-0-000-2--2-||
    pm-   pm-   pm- quick rolling pm-   pm-   pm-
                    strum up&down

GTR 1 Riff 4
|--------------------------7--------------------------7--7-|| R=4x
|-------------------------9-9-------------------------8--8-||
|-----------------------10---10-----------------------9--9-||
|---------------------10-------10---------------------9--9-||
|-2-----2-----2------8-----------8--2-----2-----2-----7--7-||
|-0-000-0-000-0-000-8-------------8-0-000-0-000-0-000-7--7-||
    pm-   pm-   pm- quick rolling     pm-   pm-   pm-
                    strum up&down

Play:
RIFF 3 2x
RIFF 4 4x
RIFF 2 2x


GTR 1&2 Riff 5
|--------7--------------7-------------7--------------------------|
|--------8--------------8-------------8--------------------------|
|--------9--------------9-------------9--------------------------|
|-9-----------7--9----------7--9-----------7--9--10-10-10-12--12-|
|-7-----------5--7----------5--7-----------5--7--8--8--8--10--10-|
|-7-----------5--7----------5--7-----------5--7--8--8--8--10--10-|

--------7---------------7--------------------------------------------|R=2x
--------8---------------8--------------------------------------------|
--------9---------------9---------------7--6-----3-----7--6--7-------|
-9-----------7--9------------7--6-------7--6-----3-----7--6--7-------|
-7-----------5--7------------5--4-------5--4--0--1-----5--4--5-------|
-7-----------5--7------------5--4-------5--4--0--1-----5--4--5-------|
                             pm         pm----|        pm----|

GTR 1&2 Riff 6
|----------------------------------------------||
|----------------------------------------------||
|----------------------------------------------||
|-------2-----1--------------------------------||
|-2-----3-----2--------------------------------||
|-0------------------4--3--2--5--3--2--6--5--3-||
  pm                 pm----------------------|

Play:
RIFF 1 3x


GTR 2 Riff 7
|----------------------------------------------------------------------------
|----------------------------------------------------------------------------
|--------------------------8--9--9---------8--9--8--5------------------------
|--------------3----------------------------------------------------3--------
|-------2------------2-----6--7--7---------6--7--6--3--------2-------------2-
|-0-111---011----011----------------0-000--------------0-111---011-----011---

-------------------------------------------------------||
-------------------------------------------------------||
---8--9--9---------8-----------------------------------||
-------------------------------------------------------||
---6--7--7---------6-----777777999999101010101010666666||
------------0-000--------------------------------------||

GTR 1 Riff 7
|----------------------------------------------------------------------------
|----------------------------------------------------------------------------
|----------------------------------------------------------------------------
|-------------10-----------8--9--9---------8--9--8--5---------------10-------
|-------9------------2---------------------------------------9-------------9-
|-0-888---088----088-------6--7--7--0-000--6--7--6--3-0--888---088-----088---

-------------------------------------------------------||
-------------------------------------------------------||
-------------------------------------------------------||
---8--9--9---------8-----------------------------------||
-------------------------------999999101010101010666666||
---6--7--7--0-000--6-----777777------------------------||


GTR 2 Riff 8
|-------------------------------|-------------------------------------------|
|-------------------------------|-------------------------------------------|
|-8--9--9---------8--9--8--5----|------------------------8--9--9---------8--|
|-------------------------------|------------3------------------------------|
|-6--7--7---------6--7--6--3----|------2------------2----6--7--7---------6--|
|----------0-000----------------|0-111---011----011---------------0-000-----|

--------------------------|| R=2x
--------------------------||
--------------------------||
-------------333333-------||
-------222222------222222-||
-111111-------------------||

GTR 1 Riff 8
|-------------------------------|-------------------------------------------|
|-------------------------------|-------------------------------------------|
|-------------------------------|-------------------------------------------|
|-8--9--9---------8--9--8--5----|-----------10-----------8--9--9---------8--|
|-------------------------------|------9------------9-----------------------|
|-6--7--7--0-000--6--7--6--3----|0-888---088----088------6--7--7--0-000--6--|

--------------------------------|| R=2x
--------------------------------||
-------------101010101010-------||
-------999999------------999999-||
-888888-------------------------||
--------------------------------||


GTR 2 Riff 9
|--------------------------------------------------------------------|
|--------------------------------------------------------------------|
|--------------------------------------------------------------------|
|-7----------------------8------7-------------5----8----7------------|
|-5----5--5--5--5--7--8----8--7-5----5--5--5--3----6----5----5--5--5-|
|-5----5--5--5------------------5----5--5--5--3----6----5----5--5--5-|

---------------------------------------------|| R=2x
---------------------------------------------||
---------------------------------------------||
---------5-------3-------------6-----6----6--||
-5--7--8---8--7--1----1--1--1--4-----4----4--||
-----------------1----1--1--1--4-----4----4--||

GTR 1 Riff 9
|--------------------------------------------------------------|
|--------------------------------------------------------------|
|-------9-9-9-10-10-10-7-7-9-------9-9-9-----------------------|
|-7-7-7----------------------7-7-7-----------------------------|
|-----------------------------------------10--8--7--10--8--7---|
|-----------------------------------------10--8--7--10--8--7---|
                                          pm---------------|
GTR 1 Riff 9                                                             R=2x
|-------------------------------------------------------------------------|
|-------------------------------------------------------------------------|
|---------9--9--9--10--10--10--7--7--9--------9--9--9---------------------|
|-7--7--7------------------------------7--7--7----------------------------|
|------------------------------------------------------12--10108--10--887-|
|------------------------------------------------------12--10108--10--887-|
                                                       pm---------------|

GTR 2 Riff 10
|--------------------------------------------------------|
|--------------------------------------------------------|
|--------------------------------------------------------|
|-7-7-7-7-7-7-----------5--------7-7-7-7-7-7-5-5-5-8-8-8-|
|-5-5-5-5-5-5--5--7--8-----8--7--5-5-5-5-5-5-3-3-3-6-6-6-|
|-5-5-5-5-5-5--------------------5-5-5-5-5-5-3-3-3-6-6-6-|

-----------------------------------------------------6--|| R=2x
-----------------------------------------------------7--||
-----------------------------------------------------8--||
-7-7-7-7-7-7-----------5--------3-3-3-3-3-3-6-----6-----||
-5-5-5-5-5-5--5--7--8-----8--7--1-1-1-1-1-1-4-----4-----||
-5-5-5-5-5-5--------------------1-1-1-1-1-1-4-----4-----||

GTR 1 Riff 10
|------------------------------------------------------------|
|------------------------------------------------------------|
|-------999999101010101010777799------999999-----------------|
|-777777------------------------777777-----------------------|
|--------------------------------------------10-887-10-887---|
|--------------------------------------------10-887-10-887---|
                                             pm----------|

------------------------------------------------------------------|R=2x
------------------------------------------------------------------|
-------999999101010101010777799------999999-----------------------|
-777777------------------------777777-----------------------------|
--------------------------------------------12-10108-10-887-------|
--------------------------------------------12-10108-10-887-------|
                                            pm------------|

Play:
RIFF 6


GTR 2 Riff 11
|--------------------------------------------------------------------------|
|--------------------------------------------------------------------------|
|--------------------------------------------------------------------------|
|-------2-----1-----------1-----0-----------------------------2-----1------|
|-2-----3-----2-----2-----2-----1-----------------------2-----3-----2------|
|-0-----------------0-----------------0--1--3--4--3--1--0------------------|
  pm                pm                pm-------------|  pm

-------7--4-------4--10--7----------7--12--8----------------------|| R=2x
------------6---6-----------9-----9----------10-------------------||
--------------7----------------10---------------9-----------------||
--------------------------------------------------10--------------||
-2---------------------------------------------------12--7--------||
-0----------------------------------------------------------------||
 pm

GTR 1 Riff 11
|--------------------------------------------------------------------------|
|--------------------------------------------------------------------------|
|--------------------------------------------------------------------------|
|-------2-----1-----------1-----0-----------------------------2-----1------|
|-2-----3-----2-----2-----2-----1-----------------------2-----3-----2------|
|-0-----------------0-----------------0--1--3--4--3--1--0------------------|
  pm                pm                pm-------------|  pm

-------10--7--------7--13--10----------10--17--12---------------------||R=2x
-------------9----9-----------12----12------------13------------------||
---------------10----------------13------------------14--9------------||
-----------------------------------------------------------10---------||
-2------------------------------------------------------------12------||
-0--------------------------------------------------------------------||
 pm

GTR 2 Riff 12
|--------------------------------------------------------|| R=4x
|--------------------------------------------------------||
|--------------------------------------------------------||
|-------999999101010101010666677------999999-------------||
|-777777------------------------777777-------------------||
|-------------------------------------------888888555577-||

GTR 1 Riff 12
|--------------------------------------------------------|| R=4x
|--------------------------------------------------------||
|--------------------------------------------------------||
|--------------------------------------------------------||
|-------999999101010101010666677------999999-------------||
|-777777------------------------777777------8888888555577||


GTR 2 Riff 13
|---------------------------------------------|| R=4x
|---------------------------------------------||
|---------------------------------------------||
|-----9----10----6---7-------9----------------||
|---------------------------------------------||
|-0000------------------00000-----8-7-5-8-7-5-||

GTR 1 Riff 13
|----------------------------------------------|| R=4x
|----------------------------------------------||
|----------------------------------------------||
|-----9----10----6---7------9----7-------------||
|-7777------------------7777-------10-9-10-9-6-||
|----------------------------------------------||


GTR 2 Riff14
|----------------------------------------------|| R=4x
|----------------------------------------------||
|----------------------------------------------||
|----------------------------------------------||
|------9----10----6---7-------9----------------||
|-7----------------------7---------8-7-5-8-7-8-||

GTR 1 Riff14
|------------------------------------------------|| R=4x
|------------------------------------------------||
|------------------------------------------------||
|------9----10----6---7-------9----7-------------||
|-7----------------------7-----------10-9-10-9-6-||
|------------------------------------------------||


Play:
RIFF 1 3x
RIFF 2 2x
RIFF 3 2x
RIFF 4 2x
RIFF 3 2x
RIFF 4 2x
RIFF 2 2X


GTR 1&2
|------------------------------------------------------------------------|
|------------------------------------------------------------------------|
|-6-----7-6---6----6----6----6----8-6---3-----7-6-7----------------------|
|-6-----7-6---6----6----6----6----8-6---3-----7-6-7------5----8---7------|
|-4-----5-4-0-4----4----4----4----5-4-0-1-----5-4-5------5----8---7------|
|-4-----5-4-0-4----4----4----4----5-4-0-1-----5-4-5------3----6---5------|
        pm----|    pm   pm        pm--|       pm--|

----------------|| END.
----------------||
----------------||
----6--6--6-----||
----4--4--4-----||
----4--4--4-----||
    pm pm pm

©2007 Ninth Kingdom

            
            
Suggest correction
Creating personal tab
Creating personal tab
You can edit any tab online and save it as your Personal.

You can edit, replace or remove any tab part or add personal notes – all changes will be seen only by you.

Personal tabs can be accessed anytime from any device, even offline.
Learn more »
Give kudos to tab author, rate the tab!
1 2 3 4 5
comments
print report bad tab
guest
You may want to rate the tab now too:
select rating
Wanna post a correction for this tab? Suggest correction