Oops, an error
Loading. Please wait.

Not Normal - Stella tab

52 views 1 this week
1 commentread comment
1 2 3 4 5
2 more votes to show rating
add to favorites
×
Save as Personal and add changes to this tab that will be seen only by you. Learn more ›
×
You can save this tab as Personal to edit and correct it or add notes. All changes will be seen only by you. Learn more »
launch autoscroll
font size
0
reset
how to read this tab
guitar tuner
edit
Autoscroll
slow
fast
+/-
esc
set tempo
stop
We are a real we just dont have a contract or anything

Track: Stella
Artist/Band: Not Normal


Intro              Verse

Guitar 1
E-----------------|:--------------------|
B-----------------|:--------------------|
G-----------------|:--------------------|
D--3-3-3-3-3-3----|:-----------5--5-5-5:|\
A---4-4-4-4-4-4---|:-2--2-2-2--3--3-3-3:| >(Repeat x2 befor G2 Kicks in, then continue)
e-----------------|:-0--0-0-0----------:|/

Guitar 2 Verse

E-----------------------------
B-----------------------------
G-----------------------------
D-----------------------------
A-7(x8)--8(x8)--7(x8)--6(x8)--  \
e-7(x8)--8(x8)--7(x8)--6(x8)--   >(Repeat once, G1 STOPS,
continue once and then start Vocal Verse1. continue till Guitar Chorus)

Chorus(G1 play only)
E-----------------------
B-----------------------
G-----------------------
D-1-1-1---5---1-1-1---3-
A-2-2-2---6---1-1-1---4-
e-2-2-2---6---1-1-1---4-


LYRICS

       Verse 1
 Its that time again,once a month,now i'm bleedin from my muff,[my hairy muff]

CHORUS
 
 STELLA  STELLA STELLA STELLA

       Verse 2
 Am gonna scream again,at all my friends. gonna ball again till all this ENDS!

  CHORUS

 STELLA! STELLA! STELLA! STELLAAAAA!
Suggest correction
Creating personal tab
Creating personal tab
You can edit any tab online and save it as your Personal.

You can edit, replace or remove any tab part or add personal notes – all changes will be seen only by you.

Personal tabs can be accessed anytime from any device, even offline.
Learn more »
Give kudos to tab author, rate the tab!
1 2 3 4 5
comments
print report bad tab
1 comment total.
0 reply
BongHead 50 Feb 12, 2003 07:00 PM

Track: Stella
Artist/Band: Not Normal
Written: Tom Hogan + Micah Abel
Tabbed by: Tom Hogan

TABS
Intro

(Guitar1 Only)
D--3-3-3-3-3-3----|:-----------5--5-5-5:|\
A---4-4-4-4-4-4---|:-2--2-2-2--3--3-3-3:| >(Repeat x2)
e-----------------|:-0--0-0-0----------:|/

Verse
(Guitar2 Only)
A-7(x8)--8(x8)--7(x8)--6(x8)-- \
e-7(x8)--8(x8)--7(x8)--6(x8)-- >(x2 Then Start lyrics)


Chorus
(G1 + G2)
E-----------------------\
B----------------------- \
G----------------------- \
D-1-1-1---5---1-1-1---3- /(Play Once per "STELLA")
A-2-2-2---6---1-1-1---4- /
e-2-2-2---6---1-1-1---4-/


LYRICS

Verse 1
Its that time again, once a month.
now i'm bleedin, from my muff.[my hairy muff!!!]

CHORUS
STELLA STELLA STELLA STELLA

Verse 2
Am gonna scream again, at all my friends.
gonna ball again, till all this ends!

CHORUS
STELLA! STELLA! STELLA! STELLAAAAA!

guest
Wanna post a correction for this tab? Suggest correction