Oops, an error
Loading. Please wait.

Novae - Sanguine Tab

4 views 1 this week
no commentswrite comment
1 2 3 4 5
3 more votes to show rating
add to favorites
launch autoscroll
font size
0
reset
how to read this tab
guitar tuner
Autoscroll
slow
fast
+/-
esc
set tempo
stop
Help us to improve Ultimate-Guitar.com Take our survey!
×
Author
Difficulty
advanced
Novae - Sanguine guitar tabs. Written/tabbed by Koral Robustelli
played in B standard on a 7-string : B E A D G B E

[Intro/Fade-in]
(guitar 1)

e|------------------------------------|
B|------------------------------------|
G|------------------------------------|
D|------------------------------------|x2
A|9--9--9--9--9--9--9--9--9--9--9--9--|
E|------------------------------------|
B|------------------------------------|
triplets ^^^^

(guitar 2)

e|------------------------------------|
B|------------------------------------|
G|------------------------------------|
D|7--7--7--7--7--7--7--7--7--7--7--7--|x2
A|------------------------------------|
E|------------------------------------|
B|------------------------------------|
triplets ^^^^

[Verse 1]
(guitar 1)

e|-----------------------------|------------------------------|
B|-----------------------------|------------------------------|
G|------------------9p7----9--9|------------------9p7----9--9-|
D|---------7--7--7------11-----|---------7--7--7------11------|
A|9--9--9----------------------|9--9--9-----------------------|
E|-----------------------------|------------------------------|
B|-----------------------------|------------------------------|
 triplets ^^^^

e|------------------------------|------------------------------|
B|------------------------------|------------------------------|
G|------------------------------|------------------------------|
D|--------------------7\5---5--5|------------------9p7----9--9-|repeat x4
A|------------------------9-----|------------7--7------11------|
E|------7--7--10--10------------|------9--9--------------------|
B|8--8--------------------------|8--8--------------------------|

(guitar 2)

e|------------------------------|------------------------------|
B|------------------10----------|------------------10----------|
G|------------------9-----------|------------------9-----------|
D|---------7--7--7--7-----------|---------7--7--7--7-----------|
A|9--9--9-----------9-----------|9--9--9-----------9-----------|
E|------------------------------|------------------------------|
B|------------------------------|------------------------------|
 triplets ^^^^


e|------------------------------|------------------------------|
B|-0----------------0-----------|---0--------------0-----------|
G|-7----------------7-----/-----|--/9--------------9-----------|
D|-5----------------5-----/-----|--/7--------------7-----------|repeat x4
A|-7----------------7-----/-----|--/9--------------9-----------|
E|------------------------------|------------------------------|
B|------------------------------|------------------------------|
slowly slide in over the 1st downbeat ^

[Pre-Chorus]
(guitar 1)
  F#mi11                                      Emi
e|---------------------|---------------------|--------------------------------------|
B|0---0--0---0--0-0-0-0|-10--10-10--9--9--9--|0---0--0---0--0-0-0-0--7--7-7--5--5-5-|
G|9---9--9---9--9-9-9-9|-9---9--9---9--9--9--|7---7--7---7--7-7-7-7--7--7-7--7--7-7-|
D|7---7--7---7--7-7-7-7|-7---7--7---7--7--7--|5---5--5---5--5-5-5-5--5--5-5--5--5-5-|
A|9---9--9---9--9-9-9-9|-9---9--9---9--9--9--|7---7--7---7--7-7-7-7--7--7-7--7--7-7-|
E|---------------------|---------------------|--------------------------------------|
B|---------------------|---------------------|--------------------------------------|


  Dma13
e|--------------------------------------------|--------------------------------|
B|0---0--0---0--0-0-0-0--0---0--0---0--0-0-0--|--------------------------------|
G|6---6--6---6--6-6-6-6--6---6--6---6--6-6-6--|---0-------------------------6--|
D|4---4--4---4--4-4-4-4--4---4--4---4--4-4-4--|4-----4-------5-----0-----------|
A|5---5--5---5--5-5-5-5--5---5--5---5--5-5-5--|---------5/7-----4-----4--------|
E|--------------------------------------------|--------------------------5-----|
B|--------------------------------------------|--------------------------------|

(guitar 2)
  Esus/A                                       Dsus/G
e|12------------------------------------------|10-----------------------------------|
B|10---------------------10---------9---------|8---------------------7-------5------|
G|9-------------------------------------------|7------------------------------------|
D|--------------------------------------------|-------------------------------------|
A|12------------------------------------------|10-----------------------------------|
E|--------------------------------------------|-------------------------------------|
B|--------------------------------------------|-------------------------------------|


  Dma13
e|----------------------|-------------------|----------------------------------|
B|0---------------------|-------------------|---8--------------------------14--|
G|18--------------------|-------------------|11---11-------12-----7------------|
D|16--------------------|-------------------|--------12/14-----11---11---------|
A|17--------------------|-------------------|--------------------------12------|
E|----------------------|-------------------|----------------------------------|
B|----------------------|-------------------|----------------------------------|

[Chorus]
(guitar 1)
  
e|---------------------|----------------------|----------------------------------------------------|
B|0---0--0---0--0-0-0-0|-0---0--0---0---0--0--|0---0--0---0---0--0--0--0----0----0--0---0---0--0---|
G|7---7--7---7--7-7-7-7|-9---9--9---11--11-11-|12--12-12--12--12-12-12-12--/12---12-12--11--11-11--|
D|0---0--0---0--0-0-0-0|-0---0--0---0---0--0--|0---0--0---0---0--0--0--0----0----0--0---0---0--0---|
A|5---5--5---5--5-5-5-5|-7---7--7---9---9--9--|10--10-10--10--10-10-10-10--/10---10-10--9---9--9---|
E|7---7--7---7--7-7-7-7|-9---9--9---10--10-10-|12--12-12--12--12-12-12-12--/12---12-12--10--10-10--|
B|---------------------|----------------------|----------------------------------------------------|



e|---------------------------------------|-----------------------------------|-------------------|
B|0---0--0----0---0---0--0---0--0---0----|0---0----0---0----0---0-----0---0--|0------------------|
G|9---9--9----9---9---9--6---6--6---6/7--|7---7----9---9----11--11----6---6--|4------------------|
D|0---0--0----0---0---0--0---0--0---0----|0---0----0---0----0---0-----0---0--|0------------------|
A|7---7--7----7---7---7--4---4--4---4----|5---5----7---7----9---9-----4---4--|2------------------|
E|9---9--9----9---9---9--5---5--5---5----|7---7----9---9----10--10----5---5--|3------------------|
B|---------------------------------------|-----------------------------------|-------------------|

(guitar 2)

e|---------------------------------------|-------------------------------------|
B|15---------------------17---------19---|20-----------------/20-----------19--|
G|---------------------------------------|-------------------------------------|
D|---------------------------------------|-------------------------------------|
A|---------------------------------------|-------------------------------------|
E|---------------------------------------|-------------------------------------|
B|---------------------------------------|-------------------------------------|

e|---------------------------------------|----------------------------------|-------------------| 
B|17-----------17--17\--14---------14/15-|15-------17-------19-------14-----|12~~~--------------|
G|---------------------------------------|----------------------------------|-------------------|
D|---------------------------------------|----------------------------------|-------------------|
A|---------------------------------------|----------------------------------|-------------------|
E|---------------------------------------|----------------------------------|-------------------|
B|---------------------------------------|----------------------------------|-------------------|

[Verse 2]
(guitar 1)

e|-----------------------------|------------------------------|
B|-----------------------------|------------------------------|
G|------------------9p7----9--9|------------------9p7----9--9-|
D|---------7--7--7------11-----|---------7--7--7------11------|
A|9--9--9----------------------|9--9--9-----------------------|
E|-----------------------------|------------------------------|
B|-----------------------------|------------------------------|
 triplets ^^^^

e|------------------------------|------------------------------|
B|------------------------------|------------------------------|
G|------------------------------|------------------------------|
D|--------------------7\5---5--5|------------------9p7----9--9-|repeat x4
A|------------------------9-----|------------7--7------11------|
E|------7--7--10--10------------|------9--9--------------------|
B|8--8--------------------------|8--8--------------------------|
                                    crescendo 4th measure
(guitar 2)

e|------------------------------|------------------------------|
B|------------------10----------|------------------10----------|
G|------------------9-----------|------------------9-----------|
D|---------7--7--7--7-----------|---------7--7--7--7-----------|
A|9--9--9-----------9-----------|9--9--9-----------9-----------|
E|------------------------------|------------------------------|
B|------------------------------|------------------------------|
 triplets ^^^^


e|------------------------------|------------------------------|
B|-0----------------0-----------|---0--------------0-----------|
G|-7----------------7-----/-----|--/9--------------9-----------|
D|-5----------------5-----/-----|--/7--------------7-----------|repeat x4
A|-7----------------7-----/-----|--/9--------------9-----------|
E|------------------------------|------------------------------|
B|------------------------------|------------------------------|
slowly slide in over the 1st downbeat ^ crescendo 4th measure

[Adventure Riff]
(both guitars)
*second guitar harmonizes up a 4th after 4th bar
e|-------------------------|---------------------------|-------------------------|
B|-------------------------|---------------------------|-------------------------|
G|-------------------------|--------------------9/11-14|-------------------------|
D|------11p7-----11p7-9p7--|------11p7---7h9/11--------|------11p7-----11p7-9p7--|
A|7h9-9------9-7----------9|7h9-9------9---------------|7h9-9------9-7----------9|
E|-------------------------|---------------------------|-------------------------|
B|-------------------------|---------------------------|-------------------------|
     PM     PM           PM     PM     PM                   PM    PM            PM

e|-----------------------9-12||-------------------------|---------------------------|
B|---------------------10----||-------------------------|---------------------------|
G|--------------------9------||-------------------------|--------------------9/11-14|
D|9h11----7h9-------11-------||------11p7-----11p7-9p7--|------11p7---7h9/11--------|
A|-----12-----11--12---------||7h9-9------9-7----------9|7h9-9------9---------------|
E|---------------------------||-------------------------|---------------------------|
B|---------------------------||-------------------------|---------------------------|
       PM     PM                  PM     PM          PM     PM     PM 

e|------------|------------|------------|------------------------|
B|------------|------------|------------|------------------------|
G|------------|------------|------------|------------------------|
D|------11p7--|--11p7-9p7--|------11p7--|------------------------|
A|7h9-9------9|7----------9|7h9-9------9|-12---------11----------|
E|------------|------------|------------|---10---------9---------|
B|------------|------------|------------|-----12-12-----10-10----|
                                          (n)       (n)
[Bridge/Breakdown]
(both guitars)

e|----------------------|------------------------|--------------------|------------------|
B|----------------------|------------------------|--------------------|------------------|
G|----------------------|------------------------|--------------------|------------------|
D|----------------------|------------------------|--------------------|------------------|x4
A|12---------11---------|--12---------11---------|--11--------11------|------------------|
E|--10---------9--------|----10---------9--------|----9---------9-----|------------------|
B|----12-12-----10-10---|------12-12-----10-10---|-----10-10-----10-10|-10-10-10-10-10-10|
  (n)       (n)           (n)        (n)           (n)       (n)
PM

(guitar 1)

e|-----------------------|------------------------------|-------------------------------------|
B|-----------------------|------------------------------|-------------------------------------|
G|-----------------------|------------------------------|------11---------7---7h9p7------7----|
D|-----------------------|7-7-7-7-7-7-11-11-11-11-11-11-|---9------9----------------9-11---11-|
A|9-9-9-9-9-9-9-9-9-9-9-9|------------------------------|7-------------7----------------------|
E|-----------------------|------------------------------|-------------------------------------|
B|-----------------------|------------------------------|-------------------------------------|
  N                   

e|-----------------------|-----------------------------|----------------------|-------------------------|
B|-----------------------|-----------------------------|11--------------------|-------------------16-20-|
G|-----------------------|-----------------------------|---10-----10/12-13-12-|-15-13-12-------17-------|
D|-----------------------|11-11-11-11-11-11-7-7-7-7-7-7|-------8--------------|----------13/15----------|
A|9-9-9-9-9-9-9-9-9-9-9-9|-----------------------------|----------------------|-------------------------|
E|-----------------------|-----------------------------|----------------------|-------------------------|
B|-----------------------|-----------------------------|----------------------|-------------------------|
  N
(guitar 2)

e|-----------------------------------|-----------------------------------|
B|-----------------------------------|10-10-10-10-10-10-14-14-14-14-14-14|
G|11-11-11-11-11-11-11-11-11-11-11-11|-----------------------------------|
D|-----------------------------------|-----------------------------------|
A|-----------------------------------|-----------------------------------|
E|-----------------------------------|-----------------------------------|
B|-----------------------------------|-----------------------------------|
  N 11, 10, and 14 tremolo picked ^

e|-----------------------------------|
B|-----------------------------------|
G|------11--------7---7h9p7------7---|
D|---9------9---------------9-11---11|
A|7------------7---------------------|
E|-----------------------------------|
B|-----------------------------------|

e|-----------------------------------|-----------------------------------|
B|-----------------------------------|14-14-14-14-14-14-10-10-10-10-10-10|
G|11-11-11-11-11-11-11-11-11-11-11-11|-----------------------------------|
D|-----------------------------------|-----------------------------------|
A|-----------------------------------|-----------------------------------|
E|-----------------------------------|-----------------------------------|
B|-----------------------------------|-----------------------------------|
  N
e|13-------------------|-------------------16-20-|
B|---11----11/13-14-13-|-16-14-13-------18-------|
G|------10-------------|----------13/15----------|
D|---------------------|-------------------------|
A|---------------------|-------------------------|
E|---------------------|-------------------------|
B|---------------------|-------------------------|

[Adventure Riff]
(both guitars)
*second guitar harmonizes up a 4th after 4th bar
e|-------------------------|---------------------------|-------------------------|
B|-------------------------|---------------------------|-------------------------|
G|-------------------------|--------------------9/11-14|-------------------------|
D|------11p7-----11p7-9p7--|------11p7---7h9/11--------|------11p7-----11p7-9p7--|
A|7h9-9------9-7----------9|7h9-9------9---------------|7h9-9------9-7----------9|
E|-------------------------|---------------------------|-------------------------|
B|-------------------------|---------------------------|-------------------------|
     PM     PM           PM     PM     PM                   PM    PM            PM

e|-----------------------9-12||-------------------------|---------------------------|
B|---------------------10----||-------------------------|---------------------------|
G|--------------------9------||-------------------------|--------------------9/11-14|
D|9h11----7h9-------11-------||------11p7-----11p7-9p7--|------11p7---7h9/11--------|
A|-----12-----11--12---------||7h9-9------9-7----------9|7h9-9------9---------------|
E|---------------------------||-------------------------|---------------------------|
B|---------------------------||-------------------------|---------------------------|
       PM     PM                  PM     PM          PM     PM     PM 

e|-------------------------|--------------------------------|
B|-------------------------|--------------------------------|
G|-------------------------|--------------------------------|
D|------11p7-----11p7-9p7--|------11p7----------------------|
A|7h9-9------9-7----------9|7h9-9------9--9-----------------|
E|-------------------------|----------------7---------------|
B|-------------------------|------------------8-8-8-8-8-----|
                                        (n)
[Solo Section]
(guitar 2 rythem)

e|-----------------------|-----------------------|-----------------------|-----------------------|
B|-----------------------|-----------------------|-----------------------|-----------------------|
G|-----------------------|-----------------------|-----------------------|-----------------------|
D|-----------------------|-----------------------|-----------------------|-----------------------|
A|9-----------9----------|9-----------9----------|7-----------7----------|7-----------7----------|
E|--7-------7---7--------|--7-------7---7--------|--5-------5---5--------|--5-------5---5--------|
B|----8-8-8-------8-8-8-8|----8-8-8-------8-8-8-8|----7-7-7-------7-7-7-7|----7-7-7-------7-7-7-7|
 (n)        (n)          (n)       (n)           (n)       (n)           (n)       (n)

e|-----------------------|-----------------------|-----------------------|-----------------------|
B|-----------------------|-----------------------|-----------------------|-----------------------|
G|-----------------------|-----------------------|-----------------------|-----------------------|
D|-----------------------|-----------------------|-----------------------|4----------------------|x4
A|9-----------9----------|9-----------9----------|4-----------4----------|------------4----------|
E|--7-------7---7--------|--7-------7---7--------|--2-------2---2--------|--2-------2---2--------|
B|----8-8-8-------8-8-8-8|----8-8-8-------8-8-8-8|----3-3-3-------3-3-3-3|----3-3-3-------3-3-3-3|
 (n)        (n)          (n)       (n)           (n)       (n)           (n)       (n)  


[Verse 3]
(guitar 1)

e|-----------------------------|------------------------------|
B|-----------------------------|------------------------------|
G|------------------9p7----9--9|------------------9p7----9--9-|
D|---------7--7--7------11-----|---------7--7--7------11------|
A|9--9--9----------------------|9--9--9-----------------------|
E|-----------------------------|------------------------------|
B|-----------------------------|------------------------------|
 triplets ^^^^

e|------------------------------|------------------------------|
B|------------------------------|------------------------------|
G|------------------------------|------------------------------|
D|--------------------7\5---5--5|------------------9p7----9--9-|repeat x4
A|------------------------9-----|------------7--7------11------|
E|------7--7--10--10------------|------9--9--------------------|
B|8--8--------------------------|8--8--------------------------|

(guitar 2)

e|------------------------------|------------------------------|
B|------------------10----------|------------------10----------|
G|------------------9-----------|------------------9-----------|
D|---------7--7--7--7-----------|---------7--7--7--7-----------|
A|9--9--9-----------9-----------|9--9--9-----------9-----------|
E|------------------------------|------------------------------|
B|------------------------------|------------------------------|
 triplets ^^^^


e|------------------------------|------------------------------|
B|-0----------------0-----------|---0--------------0-----------|
G|-7----------------7-----/-----|--/9--------------9-----------|
D|-5----------------5-----/-----|--/7--------------7-----------|repeat x4
A|-7----------------7-----/-----|--/9--------------9-----------|
E|------------------------------|------------------------------|
B|------------------------------|------------------------------|
slowly slide in over the 1st downbeat ^

[Pre-Chorus]
(guitar 1)
  F#mi11                                      Emi
e|---------------------|---------------------|--------------------------------------|
B|0---0--0---0--0-0-0-0|-10--10-10--9--9--9--|0---0--0---0--0-0-0-0--7--7-7--5--5-5-|
G|9---9--9---9--9-9-9-9|-9---9--9---9--9--9--|7---7--7---7--7-7-7-7--7--7-7--7--7-7-|
D|7---7--7---7--7-7-7-7|-7---7--7---7--7--7--|5---5--5---5--5-5-5-5--5--5-5--5--5-5-|
A|9---9--9---9--9-9-9-9|-9---9--9---9--9--9--|7---7--7---7--7-7-7-7--7--7-7--7--7-7-|
E|---------------------|---------------------|--------------------------------------|
B|---------------------|---------------------|--------------------------------------|


  Dma13
e|---------------------|----------------------|--------------------------------|
B|0---0--0---0--0-0-0-0|-0---0--0---0--0-0-0--|--------------------------------|
G|6---6--6---6--6-6-6-6|-6---6--6---6--6-6-6--|---0-------------------------6--|
D|4---4--4---4--4-4-4-4|-4---4--4---4--4-4-4--|4-----4-------5-----0-----------|
A|5---5--5---5--5-5-5-5|-5---5--5---5--5-5-5--|---------5/7-----4-----4--------|
E|---------------------|----------------------|--------------------------5-----|
B|---------------------|----------------------|--------------------------------|

(guitar 2)
  Esus/A                                       Dsus/G
e|12------------------------------------------|10-----------------------------------|
B|10---------------------10---------9---------|8---------------------7-------5------|
G|9-------------------------------------------|7------------------------------------|
D|--------------------------------------------|-------------------------------------|
A|12------------------------------------------|10-----------------------------------|
E|--------------------------------------------|-------------------------------------|
B|--------------------------------------------|-------------------------------------|


  Dma13
e|-----------------------|----------------------------------|
B|0----------------------|---8--------------------------14--|
G|18---------------------|11---11-------12-----7------------|
D|16---------------------|--------12/14-----11---11---------|
A|17---------------------|--------------------------12------|
E|-----------------------|----------------------------------|
B|-----------------------|----------------------------------|

[Chorus]
(guitar 1)
  
e|---------------------|----------------------|--------------------------|-------------------------|
B|0---0--0---0--0-0-0-0|-0---0--0---0---0--0--|0---0--0---0---0--0--0--0-|--0----0--0---0---0--0---|
G|7---7--7---7--7-7-7-7|-9---9--9---11--11-11-|12--12-12--12--12-12-12-12|-/12---12-12--11--11-11--|
D|0---0--0---0--0-0-0-0|-0---0--0---0---0--0--|0---0--0---0---0--0--0--0-|--0----0--0---0---0--0---|
A|5---5--5---5--5-5-5-5|-7---7--7---9---9--9--|10--10-10--10--10-10-10-10|-/10---10-10--9---9--9---|
E|7---7--7---7--7-7-7-7|-9---9--9---10--10-10-|12--12-12--12--12-12-12-12|-/12---12-12--10--10-10--|
B|---------------------|----------------------|--------------------------|-------------------------|



e|---------------------------------------|-----------------------------------|  |-------------------|
B|0---0--0----0---0---0--0---0--0---0----|0---0----0---0----0---0-----0---0--|  |0------------------|
G|9---9--9----9---9---9--6---6--6---6/7--|7---7----9---9----11--11----6---6--|  |4------------------|
D|0---0--0----0---0---0--0---0--0---0----|0---0----0---0----0---0-----0---0--|x2|0------------------|
A|7---7--7----7---7---7--4---4--4---4----|5---5----7---7----9---9-----4---4--|  |2------------------|
E|9---9--9----9---9---9--5---5--5---5----|7---7----9---9----10--10----5---5--|  |3------------------|
B|---------------------------------------|-----------------------------------|  |-------------------|

(guitar 2)

e|---------------------------------------|-------------------------------------|
B|15---------------------17---------19---|20-----------------/20-----------19--|
G|---------------------------------------|-------------------------------------|
D|---------------------------------------|-------------------------------------|
A|---------------------------------------|-------------------------------------|
E|---------------------------------------|-------------------------------------|
B|---------------------------------------|-------------------------------------|

e|---------------------------------------|----------------------------------|  |-------------------| 
B|17-----------17--17\--14---------14/15-|15-------17-------19-------14-----|  |12~~~--------------|
G|---------------------------------------|----------------------------------|  |-------------------|
D|---------------------------------------|----------------------------------|x2|-------------------|
A|---------------------------------------|----------------------------------|  |-------------------|
E|---------------------------------------|----------------------------------|  |-------------------|
B|---------------------------------------|----------------------------------|  |-------------------|
  tremolo pick on repeat


************************************

| x   Dead note
| (n) Ghost note
| h   Hammer-on
| p   Pull-off
| r   Release
| b   Bend
| br  Bend release
| pb  Pre-bend
| pbr Pre-bend release
| /   Slide up
| \   Slide down
| ~   Vibrato
| PM  Palm mute
| N   Tremolo

************************************
Suggest correction
Give kudos to tab author, rate the tab!
1 2 3 4 5
comments
print report bad tab
guest
You may want to rate the tab now too:
select rating
Wanna post a correction for this tab? Suggest correction