Oops, an error
Loading. Please wait.

Obliterator - Broken Down Inside tab

141 views 1 this week
no commentswrite comment
1 2 3 4 5
3 more votes to show rating
add to favorites
×
Save as Personal and add changes to this tab that will be seen only by you. Learn more ›
×
You can save this tab as Personal to edit and correct it or add notes. All changes will be seen only by you. Learn more »
launch autoscroll
font size
0
reset
how to read this tab
guitar tuner
edit
Autoscroll
slow
fast
+/-
esc
set tempo
stop
Broken Down Inside
Obliterator                     Gain/Level: 10
Drop D: DADGBe                  Low:        8
G Prometheus Scale              Mid:        4
Tempo: 136 bpm                  High:       7

[Intro]
Guitar 1
-|---------------------------------------------|
-|---------------------------------------------|
-|-10-9-9-7/9--9-7-7-5/7-10-9-9-7/9--9-7-7-5---|
-|---------------------------------------------|
-|-8--7-7-5/7--7-5-5-3/5-8--7-7-5/7--7-5-5-3p0-|
-|---------------------------------------------|x2

Both Guitars
-|---------------------------------------------|
-|---------------------------------------------|
-|-10-9-9-7/9--9-7-7-5/7-10-9-9-7/9--9-7-7-5---|
-|---------------------------------------------|
-|-8--7-7-5/7--7-5-5-3/5-8--7-7-5/7--7-5-5-3p0-|
-|---------------------------------------------|x2

-|-------|
-|-------|
-|-------|
-|-------|
-|-8---7-|
-|-8---7-|x1

-|-------------------------|
-|-------------------------|
-|-------------------------|
-|-------------------------|
-|-5p0-7p0-8p0-3p0---------|
-|-----------------X-XX-XX-|x3

-|----------------------|
-|----------------------|
-|----------------------|
-|----------------------|
-|-5p0-7p0-8p0-3p0-8--7-|
-|-----------------8--7-|x1

-|-------------------------|
-|-------------------------|
-|-------------------------|
-|-------------------------|
-|-5p0-7p0-8p0-3p0---------|
-|-----------------X-XX-XX-|x3

-|----------------------|
-|----------------------|
-|----------------------|
-|-----------------10-9-|
-|-5p0-7p0-8p0-3p0-8--7-|
-|-----------------8--7-|x1

[Verse]
-|---------------------------|
-|---------------------------|
-|---------------------------|
-|-7-7----------5-5----------|
-|-5-5----------3-3----------|
-|-5---00000000-3---00000000-|x2

-|-----------|
-|-----------|
-|-----------|
-|-----------|
-|-----------|
-|-00000000--|x1

[Bridge]
-|-------------------------|
-|-------------------------|
-|-------------------------|
-|-444-0-444-7-444-0-----0-|
-|-222-0-222-5-222-0-543-0-|
-|-222-0-222-5-222-0-543-0-|x2

-|-----------|
-|-----------|
-|-----------|
-|-----------|
-|-----------|
-|-00000000--|x2

[Chorus]
-|---------------------------------------------|
-|---------------------------------------------|
-|-10-9-9-7/9--9-7-7-5/7-10-9-9-7/9--9-7-7-5---|
-|---------------------------------------------|
-|-8--7-7-5/7--7-5-5-3/5-8--7-7-5/7--7-5-5-3p0-|
-|---------------------------------------------|x1

-|-------|
-|-------|
-|-------|
-|-------|
-|-8---7-|
-|-8---7-|x1

[Bridge]
Guitar 1
-|-------------------------|                                      \/
-|-------------------------|                                      ||
-|-------------------------|                                      ||
-|-------------------------|                                      ||
-|-5p0-7p0-8p0-3p0---------|                                      ||
-|-----------------X-XX-XX-|x3                                    ||
                                                                  ||
-|----------------------|                                         ||
-|----------------------|                                         ||
-|----------------------|                                         ||guitar 2
-|----------------------|                                         ||plays
-|-5p0-7p0-8p0-3p0-8--7-|                                         ||over
-|-----------------8--7-|x1                                       ||guitar 1
                                                                  ||
Guitar 2                                                          ||
-|-15-------12-17--------14-15--------12-12-------9-9129-------|  ||
-|--------14-----------16-----------14----------11-------13-12-|  ||
-|---12-15--------14-17--------12-15-------10-12---------------|  ||
-|-------------------------------------------------------------|  ||
-|-------------------------------------------------------------|  ||
-|-------------------------------------------------------------|  /\

-|-------------------------|
-|-------------------------|
-|-------------------------|
-|-------------------------|
-|-5p0-7p0-8p0-3p0---------|
-|-----------------X-XX-XX-|x3

-|----------------------|
-|----------------------|
-|----------------------|
-|-----------------10-9-|
-|-5p0-7p0-8p0-3p0-8--7-|
-|-----------------8--7-|x1

[Verse]
-|---------------------------|
-|---------------------------|
-|---------------------------|
-|-7-7----------5-5----------|
-|-5-5----------3-3----------|
-|-5---00000000-3---00000000-|x2

-|-----------|
-|-----------|
-|-----------|
-|-----------|
-|-----------|
-|-00000000--|x1

[Bridge]
-|-------------------------|
-|-------------------------|
-|-------------------------|
-|-444-0-444-7-444-0-----0-|
-|-222-0-222-5-222-0-543-0-|
-|-222-0-222-5-222-0-543-0-|x2

-|-----------|
-|-----------|
-|-----------|
-|-----------|
-|-----------|
-|-00000000--|x2

[Chorus]
-|---------------------------------------------|
-|---------------------------------------------|
-|-10-9-9-7/9--9-7-7-5/7-10-9-9-7/9--9-7-7-5---|
-|---------------------------------------------|
-|-8--7-7-5/7--7-5-5-3/5-8--7-7-5/7--7-5-5-3p0-|
-|---------------------------------------------|x1

-|-------|
-|-------|
-|-------|
-|-------|
-|-8---7-|
-|-8---7-|x1

-|---------------------------------------------|
-|---------------------------------------------|
-|-10-9-9-7/9--9-7-7-5/7-10-9-9-7/9--9-7-7-5---|
-|---------------------------------------------|
-|-8--7-7-5/7--7-5-5-3/5-8--7-7-5/7--7-5-5-3p0-|
-|---------------------------------------------|x1

-|-------|
-|-------|
-|-------|
-|-------|
-|-8---7-|
-|-8---7-|x1

[Breakdown]
-|--------------------------|
-|--------------------------|
-|--------------------------|
-|--------------------------|
-|-5-00-0-3-00-0-2-00-0-----|
-|-5-00-0-3-00-0-2-00-0-<5>-|

-|--------------------------|
-|--------------------------|
-|--------------------------|
-|--------------------------|
-|-5-00-0-3-00-0-2-00-0-<5>-|
-|-5-00-0-3-00-0-2-00-0-----|

-|--------------------------|
-|--------------------------|
-|--------------------------|
-|--------------------------|
-|-5-00-0-3-00-0-2-00-0-----|
-|-5-00-0-3-00-0-2-00-0-<5>-|

-|--------------------------|
-|--------------------------|
-|--------------------------|
-|--------------------------|
-|-5-00-0-3-00-0-2-00-0-\\\-|
-|-5-00-0-3-00-0-2-00-0-\\\-|

-|--------------------------|
-|--------------------------|
-|--------------------------|
-|--------------------------|
-|-5-00-0-3-00-0-2-00-0-----|
-|-5-00-0-3-00-0-2-00-0-<5>-|

-|--------------------------|
-|--------------------------|
-|--------------------------|
-|--------------------------|
-|-5-00-0-3-00-0-2-00-0-<5>-|
-|-5-00-0-3-00-0-2-00-0-----|

-|--------------------------|
-|--------------------------|
-|--------------------------|
-|--------------------------|
-|-5-00-0-3-00-0-2-00-0-----|
-|-5-00-0-3-00-0-2-00-0-<5>-|

-|--------------------------|
-|--------------------------|
-|--------------------------|
-|--------------------------|
-|-5-00-0-3-00-0-2-00-0-\\\-|
-|-5-00-0-3-00-0-2-00-0-\\\-|

[Solo]
-|---7------------------------------------12------13------12-13--------|
-|-6b--6-5--5h6-----------17h18-------------14--14--14--14-----14------|
-|---------6---4h6-------------16h18----------12------13---------13-12-|
-|-----------------5h6-/18-----------17h18-----------------------------|
-|---------------------------------------------------------------------|
-|---------------------------------------------------------------------|

-|-----15-13--------------------------------------|
-|---14-----14------------------------------------|
-|-13---------13-15b-r-13---------------10h12-/16-|
-|----------------------------------9h11----------|
-|------------------------------8h10--------------|
-|--------------------------9h11------------------|

-|-------------------------14-15-|
-|----------------------14-------|
-|----------------18-14----------|
-|----------17-19----------------|
-|-------18----------------------|
-|-17-19-------------------------|

-|-15-------12-17--------14-15-------12-12--------9-9129-------|
-|--------14-----------16----------14-----------11-------13-12-|
-|---12-15--------14-17-------12-15--------10-12---------------|
-|-------------------------------------------------------------|
-|-------------------------------------------------------------|
-|-------------------------------------------------------------|

[Under solo]
-|------------------------------------------------------------------------------------------|
-|------------------------------------------------------------------------------------------|
-|------------------------------------------------------------------------------------------|
-|------------------------------------------------------------------------------------------|
-|-3p0-5p0-2p0-1p0--------3p0-5p0-2p0-1p0--------3p0-5p0-2p0-1p0--------5p0-7p0-3p0-2p0-8-7-|
-|----------------X-XX-XX----------------X-XX-XX----------------X-XX-XX-----------------8-7-|x2

[Both guitars]
-|-15p12---15p12---15p12---15-15---15p12---15p12---|
-|------12------12------12------12------12------12-|
-|-------------------------------------------------|
-|-------------------------------------------------|
-|-------------------------------------------------|
-|-------------------------------------------------|

-|-17p12---17p12---17p12---17-17---17p12---17p12---|
-|------12------12------12------12------12------12-|
-|-------------------------------------------------|
-|-------------------------------------------------|
-|-------------------------------------------------|
-|-------------------------------------------------|

-|-15p12---15p12---15p12---15-15---15p12---15p12---|
-|------12------12------12------12------12------12-|
-|-------------------------------------------------|
-|-------------------------------------------------|
-|-------------------------------------------------|
-|-------------------------------------------------|

-|-19p12---19p12---19p12---19-19---19p12---19p12---|
-|------12------12------12------12------12------12-|
-|-------------------------------------------------|
-|-------------------------------------------------|
-|-------------------------------------------------|
-|-------------------------------------------------|

-|-19-15-17-14--19-17-15------14b--14-14-15--14--r-|
-|-----------------------16------------------------|
-|--------------------------18---------------------|
-|-------------------------------------------------|
-|-------------------------------------------------|
-|-------------------------------------------------|

Guitar 1
-|---------------------------------|    \/
-|---------------------------------|    ||
-|---------------------------------|    ||
-|-9-5-7-3-9-5-7-3-9-5-7-3-555-777-|    ||
-|-------------------------333-555-|    ||
-|---------------------------------|x3  ||
                                        ||both played at
Guitar 2                                ||the same time
-|---------------------------------|    ||
-|---------------------------------|    ||
-|---------------------------------|    ||
-|-------------------------555-777-|    ||
-|-------------------------333-555-|    ||
-|-9-5-7-3-9-5-7-3-9-5-7-3---------|x3  /\

Both Guitars
-|---------------------------------|
-|---------------------------------|
-|---------------------------------|
-|-------------------------555-777-|
-|-------------------------333-555-|
-|-9-5-7-3-9-5-7-3-9-5-7-3---------|x1

[Chorus]
-|---------------------------------------------|
-|---------------------------------------------|
-|-10-9-9-7/9--9-7-7-5/7-10-9-9-7/9--9-7-7-5---|
-|---------------------------------------------|
-|-8--7-7-5/7--7-5-5-3/5-8--7-7-5/7--7-5-5-3p0-|
-|---------------------------------------------|x1

-|-------|
-|-------|
-|-------|
-|-------|
-|-8---7-|
-|-8---7-|x1

-|---------------------------------------------|
-|---------------------------------------------|
-|-10-9-9-7/9--9-7-7-5/7-10-9-9-7/9--9-7-7-5---|
-|---------------------------------------------|
-|-8--7-7-5/7--7-5-5-3/5-8--7-7-5/7--7-5-5-3p0-|
-|---------------------------------------------|x1

-|-------|
-|-------|
-|-------|
-|-------|
-|-8---7-|
-|-8---7-|x1

[Outro]
-|-------------------------|
-|-------------------------|
-|-------------------------|
-|-------------------------|
-|-5p0-7p0-8p0-3p0---------|
-|-----------------X-XX-XX-|x3

-|----------------------|
-|----------------------|
-|----------------------|
-|----------------------|
-|-5p0-7p0-8p0-3p0-8--7-|
-|-----------------8--7-|x1

-|-------------------------|
-|-------------------------|
-|-------------------------|
-|-------------------------|
-|-5p0-7p0-8p0-3p0---------|
-|-----------------X-XX-XX-|x3

-|----------------------|
-|----------------------|
-|----------------------|
-|-----------------10-9-|
-|-5p0-7p0-8p0-3p0-8--7-|
-|-----------------8--7-|x1

-|---------------------------------------------|
-|---------------------------------------------|
-|-10-9-9-7/9--9-7-7-5/7-10-9-9-7/9--9-7-7-5---|
-|---------------------------------------------|
-|-8--7-7-5/7--7-5-5-3/5-8--7-7-5/7--7-5-5-3p0-|
-|---------------------------------------------|x1

-|-------|
-|-------|
-|-------|
-|-------|
-|-8---7-|
-|-8---7-|x1

-|---------------------------------------------|
-|---------------------------------------------|
-|-10-9-9-7/9--9-7-7-5/7-10-9-9-7/9--9-7-7-5---|
-|---------------------------------------------|
-|-8--7-7-5/7--7-5-5-3/5-8--7-7-5/7--7-5-5-3p0-|
-|---------------------------------------------|x1

Guitar 1
-|-------------------------------------------|
-|-------------------------------------------|
-|-------------------------------------------|
-|-------------------------------------------|
-|-------------------------------------------|
-|-------------------------------------------|

Guitar 2
-|-------------------------------------------|
-|-------------------------------------------|
-|-------------------------------------------|
-|-------------------------------------------|
-|-0-0-0-000-0-0-0-000-0-0-0-000-0-0-0-000-0-|
-|-0-0-0-000-0-0-0-000-0-0-0-000-0-0-0-000-0-|
Suggest correction
Creating personal tab
Creating personal tab
You can edit any tab online and save it as your Personal.

You can edit, replace or remove any tab part or add personal notes – all changes will be seen only by you.

Personal tabs can be accessed anytime from any device, even offline.
Learn more »
Give kudos to tab author, rate the tab!
1 2 3 4 5
comments
print report bad tab
guest
You may want to rate the tab now too:
select rating
Wanna post a correction for this tab? Suggest correction