Oops, an error
Loading. Please wait.

One Dance Left - Not A Love Song Chords

51 views 1 this week
no commentswrite comment
1 2 3 4 5
please rate
add to favorites
launch autoscroll
font size
0
reset
transpose
0
reset
- display chords -
guitar tuner
Tab Pro tools
  • play this tab
  • loop segment
  • change instrument
  • show fretboard
  • metronome
Autoscroll
slow
fast
+/-
esc
set tempo
stop
Contributor
Intro

E   B  C#m   A Abm A
                      Go!

Verse 1

E   B  C#m   A

E               B
  Go ahead and play your games
C#m                  A
   Cause I've given up on you babe
E                           B
  You said you needed some time off
C#m                  A
   I said go find a bridge and drive off

Prechorus

E             B
  I hope you cry yourself to sleep
C#m                A
   When you think what you've done to me
E             B
  Maybe this was wishful thinking
C#m                A
   But I've grown so used to the bad decisions and

Chorus

E                  B             C#m               A
This is not a love song. This is not about you and me.
         E              B           C#m               A
This is not some declaration of the man I wanna be.
        E                  B             C#m               A
And I think it's kind of funny that for all the times we shared
        E                  B              C#m            A
Well I think I'm going crazy, because the memory is no longer there

E   B  C#m   A

Verse 2

E                       B
  After all that we've been through
C#m                  A
 How can you do the things you do?
E                     B
  But if you'd rather be
      C#m                  A
In an unhealthy romance, go ahead and live me

Prechorus

E             B
  I hope you cry yourself to sleep
C#m                A
   When you think what you've done to me
E                   B
 I could have been everything you wanted but
C#m                           A
   you called it quits before we even started

Chorus

E                  B             C#m               A
This is not a love song. This is not about you and me.
         E              B           C#m               A
This is not some declaration of the man I wanna be.
        E                  B             C#m               A
And I think it's kind of funny that for all the times we shared
        E                  B              C#m            A
Well I think I'm going crazy, because the memory is no longer there


e|----------------------------------------------------------------------------|
B|----------------------------------------------------------------------------|
G|--------------6--9--9--6----------------------------------------------------|
D|--------6--9--------------9--6--9-------------------------------------------|
A|--7--9-----------------------------9---7--7--7--7---------------------------|
E|----------------------------------------------------------------------------|

e|----------------------------------------------------------------------------|
B|----------------------------------------------------------------------------|
G|--------------6--9--6-6-9-6-9-6---------------------------------------------|
D|--------6--9----------------------9--6--9-----------------------------------|
A|--7--9-------------------------------------9---7----------------------------|
E|----------------------------------------------------------------------------|

(let ring)
 E------         B-------         C#m--------       A
 This is not a love song. This is not about you and me.

E                B               C#m               A
This is not a love song. This is not about you and me.

E                B               C#m               A
This is not a love song. This is not a love song.

(Solo plays with words)

    E                     B    C#m                    A
And I don't know what to do. I guess I'll keep living my life without you.
 E                    B             C#m                      A
I don't know what to say, because I gave you my all and you threw it away.
comments
We did not receive enough feedback on this tab! Please rate:
print report bad tab
1 2 3 4 5
I want to post or [tab]
guest
You may want to rate the tab now too:
select rating
Please do not post tabs as comments. Select "correction" instead!