Oops, an error
Loading. Please wait.

Our Last Day - Tribute To Green Day Tab

918 views 1 this week
5 commentsread comments
1 2 3 4 5
worth learning
x 6
add to favorites
launch autoscroll
font size
0
reset
how to read this tab
guitar tuner
Autoscroll
slow
fast
+/-
esc
set tempo
stop
Help us to improve Ultimate-Guitar.com Take our survey!
×
Contributor
Difficulty
intermediate
Tracks:

1. Brainstew
2. Hitchin a ride
3. When I come around
4. I was there
5. American Idiot(No drums)

Brainstew:


|------------------------|--------------------------------|
|------------------------|--------------------------------|
|------------------------|--------------------------------|
|-7-7--5-5--4-4--3-3-2-2-|-7-7--5-5--4-4--3-3-3-3-2-2-2-2-|
|-7-7--5-5--4-4--3-3-2-2-|-7-7--5-5--4-4--3-3-3-3-2-2-2-2-|
|-5-5--3-3--2-2--1-1-0-0-|-5-5--3-3--2-2--1-1-1-1-0-0-0-0-|

Chorus thingy (Part 1) I guess... 2x
|-----------------------------------------------------------|
|-----------------------------------------------------------|
|-----------------------------------------------------------|
|-7-7--X-X-X-X--5-5--X-X-X-X--4-4--X-X-X-X--3-3-3-3-2-2-2-2-|
|-7-7--X-X-X-X--5-5--X-X-X-X--4-4--X-X-X-X--3-3-3-3-2-2-2-2-|
|-5-5-----------7-7-----------2-2-----------1-1-1-1-0-0-0-0-|

Back to this several times
|------------------------|--------------------------------|
|------------------------|--------------------------------|
|------------------------|--------------------------------|
|-7-7--5-5--4-4--3-3-2-2-|-7-7--5-5--4-4--3-3-3-3-2-2-2-2-|
|-7-7--5-5--4-4--3-3-2-2-|-7-7--5-5--4-4--3-3-3-3-2-2-2-2-|
|-5-5--3-3--2-2--1-1-0-0-|-5-5--3-3--2-2--1-1-1-1-0-0-0-0-|

Chorus  (Part 2)... 2x
|------------------------------------------------------------|
|------------------------------------------------------------|
|-----5-5-7-7-------5-5-7-7-------5-5-7-7--------------------|
|-7-7-5-5-7-7--5-5--5-5-7-7--4-4--5-5-7-7--3-3-3-3-2-2-2-2---|
|-7-7----------5-5-----------4-4-----------3-3-3-3-2-2-2-2---|
|-5-5----------7-7-----------2-2-----------1-1-1-1-0-0-0-0---|

Back to this several times
|------------------------|--------------------------------|
|------------------------|--------------------------------|
|------------------------|--------------------------------|
|-7-7--5-5--4-4--3-3-2-2-|-7-7--5-5--4-4--3-3-3-3-2-2-2-2-|
|-7-7--5-5--4-4--3-3-2-2-|-7-7--5-5--4-4--3-3-3-3-2-2-2-2-|
|-5-5--3-3--2-2--1-1-0-0-|-5-5--3-3--2-2--1-1-1-1-0-0-0-0-|

Outro Part 1 several times
|--------------------------------------------------|
|--------------------------------------------------|
|-7-7-7--7-7-5-5-5--5-5-4-4-4--4-4-3-3-3-3-2-2-2-2-|
|-7-7-7--7-7-5-5-5--5-5-4-4-4--4-4-3-3-3-3-2-2-2-2-|
|-5-5-5--5-5-3-3-3--3-3-2-2-2--2-2-1-1-1-1-0-0-0-0-|

Outro Part 2 (Cont'd) (Several times after First outro part
|----------------------------------------------|
|----------------------------------------------|
|----------------------------------------------|
|-7-7--7-7-5-5--5-5-4-4-4--4-4-3-3-3-3-2-2-2-2-|
|-7-7--7-7-5-5--5-5-4-4-4--4-4-3-3-3-3-2-2-2-2-|
|-5-5--5-5-3-3--3-3-2-2-2--2-2-1-1-1-1-0-0-0-0-|


2.Hitchin a ride

h = hammer-on
p = pull-off
b = bend
/ = slide up
\ = slide down
5 = power chord

Intro (violin arranged for guitar)
e|---------------------------------------------------------------|
B|--------------8------------------------------------------------|
G|------8h9-11----11--9-8h9p8------------------------------------|
D|-9h10-----------------------10---------------------------------|
A|-------------------------------x-x-----------------------------|
E|-------------------------------x-x-----------------------------|

Main riff
   B5   A5   G#5  G5
e|---------------------------------------------------------------|
B|---------------------------------------------------------------|
G|---------------------------------------------------------------|
D|-9----7----6----5----------------------------------------------|
A|-9----7----6----5----------------------------------------------|
E|-7----5----4----3----------------------------------------------|

Chorus
   E5   F#5               E5   F#5
e|---------------------------------------------------------------|
B|---------------------------------------------------------------|
G|-----------(main riff)-----------------------------------------|
D|-2----4-----------------2----4---------------------------------|
A|-2----4-----------------2----4---------------------------------|
E|-0----2-----------------0----2---------------------------------|

Bridge (played over end chords, strum really fast)
                                      |       x3      |
e|---------------------------------------------------------------|
B|-12--15---12--8--7---12--15---17-b---17--15--12--15---12--15---|
G|-x---x----x---x--x---x---x----x------x---x---x---x----x---x----|
D|-9---12---9---5--4---9---12---14-b---14--12--9---12---9---12---|
A|---------------------------------------------------------------|
E|---------------------------------------------------------------|
           |       x2    |
e|---------------------------------------------------------------|
B|-12--10--12--15--17--15---17b----------------------------------|
G|-x---x---x---x---x---x----x------------------------------------|
D|-9---7---9---12--14--12---14b----------------------------------|
A|---------------------------------------------------------------|
E|---------------------------------------------------------------|

End
   B5   D5   G5   F#5  (x7)  B5   D5   F#5 (over last F#5)   B6
e|-----------------------------------------------------------4---|
B|--------------------------------------------17b------------4---|
G|------7-------------------------7-----------x--------------4---|
D|-9----7----5----4----------9----7----4------14b------------4---|
A|-9----5----5----4----------9----5----4---------------------2---|
E|-7---------3----2----------7---------2-------------------------|


Order

Intro (violin intro, main riff x2)
Verse 1 (main riff x4)
Verse 2 (main riff x4)
Main riff x4 (last G5 omitted)
Verse 3 (main riff x4)
Verse 4 (main riff x4)
Main riff x4
Chorus
Main riff x2
Verse 4 (main riff x4)
Bridge
Chorus
End

3.When i come around

h = hammer-on
p = pull-off
b = bend
/ = slide up
\ = slide down
5 = power chord

Verse
   G5   D5   E5   C5  (x8)
e|---------------------------------------------------------------|
B|---------------------------------------------------------------|
G|------7----9----5----------------------------------------------|
D|-5----7----9----5----------------------------------------------|
A|-5----5----7----3----------------------------------------------|
E|-3-------------------------------------------------------------|

Chorus
   A5   C5   (x2)
e|---------------------------------------------------------------|
B|---------------------------------------------------------------|
G|------5--------------------------------------------------------|
D|-7----5--------------------------------------------------------|
A|-7----3--------------------------------------------------------|
E|-5-------------------------------------------------------------|

Bridge
             (played over verse chords)
e|-----------3-------5-------3-----5--0-0-0--0-0-5--0-0-0--------|
B|-------------3---3---3---3---3------0------0-------------5b--2b|
G|-(verse x2)----0-------0-------0-------------------------------|
D|---------------------------------------------------------------|
A|---------------------------------------------------------------|
E|---------------------------------------------------------------|

4. I was There


Intro

E|-----------------------------------------------------------------------||
B|--6-6-6-6-6-6-6-6--5-5-5-5-5-5-5-5--6-6-6-6-6-6-6-6--5-5-5-5-5-5-5-5---||
G|--5-5-5-5-5-5-5-5--5-5-5-5-5-5-5-5--3-3-3-3-3-3-3-3--3-3-3-3-3-3-3-3---||
D|-----------------------------------------------------------------------||
A|-----------------------------------------------------------------------||
E|-----------------------------------------------------------------------||

Verse

E|-----------------------------------------------------------------------||
B|-----------------------------------------------------------------------||
G|-5--5--5-5-5-5--5-5--5-5-5-5--3--3--3-3-3-3--3-3--3-3-3-3--------------||
D|-5--5--5-5-5-5--5-5--5-5-5-5--3--3--3-3-3-3--3-3--3-3-3-3--------------||
A|-3--3--3-3-3-3--3-3--3-3-3-3--1--1--1-1-1-1--1-1--1-1-1-1--------------||
E|-----------------------------------------------------------------------||
  and in the background this can be heard played throughout
E|-----------------------------------------------------------------------||
B|-----------------------------------------------------------------------||
G|---0---0---0-----0---0---0---------------------------------------------||
D|-2---2---2-----0---0---0-----------------------------------------------||
A|-----------------------------------------------------------------------||
E|-----------------------------------------------------------------------||

Chorus  (AKA CHORUS PT 1 FOR P2 OF SOLO)

E|-----------------------------------------------------------------------||
B|-----------------------------------------------------------------------||
G|-------------5--5-5--5-5-5-5--------------5--5-5--5-5-5-5--------------||
D|-3--3--3-3-3-5--5-5--5-5-5-5-3--3-3-3-3-3-5--5-5--5-5-5-5--------------||
A|-3--3--3-3-3-3--3-3--3-3-3-3-3--3-3-3-3-3-3--3-3--3-3-3-3--------------||
E|-1--1--1-1-1-----------------1--1-1-1-1-1------------------------------||

E|-----------------------------------------------------------------------||
B|-----------------------------------------------------------------------||
G|-3--3-3-3-3-3-3-3-3-3-3-3-3-3-3-5--5--5-5-5-5--5-5--5-5-5-5------------||
D|-3--3-3-3-3-3-3-3-3-3-3-3-3-3-3-5--5--5-5-5-5--5-5--5-5-5-5------------||
A|-1--1-1-1-1-1-1-1-1-1-1-1-1-1-1-3--3--3-3-3-3--3-3--3-3-3-3------------||
E|-----------------------------------------------------------------------||

Bridge

E|-----------------------------------------------------------------------||
B|-5--5-5-5-5-5-6-6-5-5-6-6-5-5-3--3-3-3-3-3-4-4-3-3-4-4-3-3-------------||
G|-5--5-5-5-5-5-5---5---5---5---3--3-3-3-3-3-3---3---3---3---------------||
D|-x--x-x-x-x-x-x---x---x---x---x--x-x-x-x-x-x---x---x---x---------------||
A|-3--3-3-3-3-3-3---3---3---3---1--1-1-1-1-1-1---1---1---1---------------||
E|-----------------------------------------------------------------------||

Solo
PT1
E|-----------------------------------------------------------------------||
B|----------13---------------13-------------11-----------11--------------||
G|-12----12----12---12----12-----12-10---10----10--10-10----10-----------||
D|----10---------------10--------------8----------8--8-------------------||
A|-----------------------------------------------------------------------||
E|-----------------------------------------------------------------------||

 then
PT2
E|-----------------------------------------------------------------------||
B|-----------------------------------------------------------------------||
G|-------0-----------0-----------0-----------0---------------------------||
D|-----4---4-------4---4-------4---4-------4---4-------------------------||
A|-5-5-------5-3-3-------3-5-5-------5-3-3-------3-----------------------||
E|-----------------------------------------------------------------------||
                                                                          |
Well that's the tab sorted out now for the lyrics and order of play       |
--------------------------------------------------------------------------|
ORDER OF PLAY                                                             |
--------------------------------------------------------------------------|
INTRO X 2                                                                 |
VERSE X 6                                                                 |
CHORUS X 2                                                                |
VERSE X 6                                                                 |
CHORUS X 2                                                                |
BRIDGE X 2                                                                |
SOLO  PT 1 X 4                                                            |
SOLO PT 2 X 1                                                             |
CHORUS PT 1 WITH SOLO PT 2 X 4                                            |
VERSE X 4                                                                 |
CHORUS X 4                                                                |
END ON C5

5. American Idiot(No Drums)


Intro/Verses
I play mostly downstrokes but throw in a couple upstrokes as well
|-----------------------------------------------------|
|-----------------------------------------------------|
|--------6666------6----------------------------------|
|---666--6666--44--6--6--4----------------------------|
|---666--4444--44--4--6--4----------------------------|
|---444--------22-----4--2----------------------------|

Chorus
|-----------------------------------------------|
|-----------------------------------------------|
|-----66666666------------88888888--------------|
|-----66666666--66666666--88888888--66666666----|
|-----44444444--66666666--66666666--66666666----|
|---------------44444444------------44444444----|

|-----------------------------------------------|
|-----------------------------------------------|
|-----66666666------------88888888--------------|
|-----66666666--66666666--88888888--------------|
|-----44444444--66666666--66666666--------------|
|---------------44444444------------------------|

Solo
|-----------------------------------------------------------------------|
|-----------------------------------------------------------------------|
|--------------------------------------------888-101010-121212-13/15/13-|
|---------------------------888-10-11-10-8-6----------------------------|
|-888888-6-4--6666--8-6-4-3---------------------------------------------|
|-----------------------------------------------------------------------|

|----------------------------------------------------------------------|
|----------------------------------------------------------------------|
|--------------------------------------------8/13~~~~------------------|
|---------------------------888-10-11-10-8-6---------------------------|
|-888888-6-4--6666--8-6-4-3--------------------------------------------|
|----------------------------------------------------------------------|

|-----------------------------------------------------|
|-----------------------------------------------------|
|--------6666------6----------------------------------|
|---666--6666--44--6--6--4----------------------------|
|---666--4444--44--4--6--4----------------------------|
|---444--------22-----4--2----------------------------|

________Please visit our band website at www.ourlastday.cabanova.com________
comments
print report bad tab
5 comments total. Showing first comments.
0 reply
Donkey Fly 6,828 wrote on April 20 2006, 10:12 am

There not even your own tabs you've just copied and pasted them.

I Don't know how you can say it is intermediate

The solo is octaves in american idiot

0 reply
XxGibsonSGxX 4,028 wrote on September 4 2006, 12:06 am

Man, this ****ing sucks. This is a disgrace to Green Day. None of these tabs are right. The only thing that's okay is the rearranged violin intro. Fuck.

0 reply
mccann685 265 wrote on December 31 2007, 05:46 pm

Hitchin' a ride is very rong!

I want to post or [tab]
guest
You may want to rate the tab now too:
select rating
Please do not post tabs as comments. Select "correction" instead!