Oops, an error
Loading. Please wait.

Owen Chen - Deluged Emotions tab

441 views 1 this week
no commentswrite comment
1 2 3 4 5
1 last vote to show rating
add to favorites
×
Save as Personal and add changes to this tab that will be seen only by you. Learn more ›
×
You can save this tab as Personal to edit and correct it or add notes. All changes will be seen only by you. Learn more »
launch autoscroll
font size
0
reset
how to read this tab
guitar tuner
edit
Autoscroll
slow
fast
+/-
esc
set tempo
stop
Author
Difficulty
-------------------------------------------------------------------------------
                 [The New] Deluged Emotions – Composed by Owen Chen
-------------------------------------------------------------------------------
Tabbed by: Mr. J Rooke.
Email: iamemperorgod@yahoo.com

Tuning: Standard EADGBe

OK, this has taken a good few hours, enjoy, rate and comment  tis a great song 
a great artist. I’ve done all this, figure out the timings on your own.

e|------------------------14-15p14--------------------------17--15p14--------|
B|-/15~----15~----15-17------------15~---/15~-----15~----15------------15~---|
G|------14-----14-----------------------------14-----14----------------------|
D|---------------------------------------------------------------------------|
A|---------------------------------------------------------------------------|
E|---------------------------------------------------------------------------|

e|----------17~-14-15-1717~~--------17--14-15-1717~~-17^pb-r-fb-r----|
B|--/14-15-------------------/14-15-------------------x--------------|
G|----------------------------------------------------x--------------|
D|----------------------------------------------------x--------------|
A|-------------------------------------------------------------------|
E|-------------------------------------------------------------------|

e|------------------------14-15p14-------------------------------------------|
B|-/15~----15~----15-17-------------15-------------------------------14br-14-|
G|------14-----14-----------------------14-14p12p11-12~~11-11-12/14----------|
D|---------------------------------------------------------------------------|
A|---------------------------------------------------------------------------|
E|---------------------------------------------------------------------------|

e|-------17-14-15-1717~~--17brb-------17---14-15-1717--22-22b--22~~~~--------|
B|-15-15------------------------14-15----------------------------------------|
G|---------------------------------------------------------------------------|
D|---------------------------------------------------------------------------|
A|---------------------------------------------------------------------------|
E|---------------------------------------------------------------------------|

[Switch to a cleaner channel now. Watch the video because some notes are only strummed 
the first chord is played lightly, almost unlike a chord.]

e|---------------------------------------------------------------------------|
B|---------------------------------------------------------------------------|
G|--7--6---------------------------------------------------------------------|
D|--7----7---5-4-5~--4-----------/5p4------5p4-------------------------------|
A|--5------------------5/7-5~---------5—5\-----5/7-5---5-4-5~--5-5/7—7~------|
E|---------------------------------------------------------------------------|

e|----------------------------------------------------------------------------------|
B|---------------------7---8---8/10-10~~-8-7-8--7----8-7-8--7-----------------------|
G|--/7-6-7/9--7--6-7/9---7---7--------------------7~----------7~---6--6/7--9--11~---|
D|----------------------------------------------------------------------------------|
A|----------------------------------------------------------------------------------|
E|----------------------------------------------------------------------------------|

[Now go back to the other channel]
e|-----------------------/14-15p14----------------------------------------------|
B|-17pbrb—17pbr-15-17~~-------------15~-----------------------------------------|
G|--------------------------------------14-14~--12-11-12~--/12p11p9--9*-11-9*---|
D|------------------------------------------------------------------------------|
A|------------------------------------------------------------------------------|
E|------------------------------------------------------------------------------|

e|-------------------------------------------------------------------------------------|
B|----------------------------------------------------12----------12-14-15-14----14-15-|
G|--9\7-9*-----------------------11-12-11----11-12-14----14-12-14-------------16-------|
D|---------7br7~--------11-12-14----------14-------------------------------------------|
A|---------------/12-14----------------------------------------------------------------|
E|-------------------------------------------------------------------------------------|

e|------------------------14-15p14---------------------------17-15-p14------------|
B|-/15~----15~----15-17------------15------15-------17-----------------15/17—15~--|
G|------14-----14----------------------/14----14-14----14-14----------------------|
D|--------------------------------------------------------------------------------|
A|--------------------------------------------------------------------------------|
E|--------------------------------------------------------------------------------|

e|------------------1717~~-------------------1717~~--17brb~~-|
B|-----14----15-----------------14----15---------------------|
G|-/14----14----14----------/14----14----14------------------|
D|-----------------------------------------------------------|
A|-----------------------------------------------------------|
E|-----------------------------------------------------------|

e|------------------------14-15p14-------------------------------------------|
B|-/15~----15~----15-17-------------15-------------------------------14br-14-|
G|------14-----14-----------------------14-14p12p11-12~~11-11-12/14----------|
D|---------------------------------------------------------------------------|
A|---------------------------------------------------------------------------|
E|---------------------------------------------------------------------------|

e|-------17-14-15-1717~~--17brb-------17---14-15-1717--21-21b--21~~~~--------|
B|-15-15------------------------14-15----------------------------------------|
G|---------------------------------------------------------------------------|
D|---------------------------------------------------------------------------|
A|---------------------------------------------------------------------------|
E|---------------------------------------------------------------------------|

[Switch to a cleaner channel now. Watch the video because some notes are only strummed lightly]

e|---------------------------------------------------------------------------|
B|---------------------------------------------------------------------------|
G|--7--6---------------------------------------------------------------------|
D|--7----7---5-4-5~--4-----------/5p4------5p4-------------------------------|
A|--5------------------5/7-5~---------5—5\-----5/7-5---5-4-5~--5-5/7—7~------|
E|---------------------------------------------------------------------------|

e|---------------------------------------------------------------------------|
B|--7-8h7--------------------------------------------------------------------|
G|--7-7(7)--7--7-7~~-7/4-4~--------------------------------------------------|
D|--------------------------44/7--5-4-55~~4----------------------------------|
A|------------------------------------------5----------5-4-5~-5/7\5~~--------|
E|---------------------------------------------5/7\5~------------------------|

e|---------------------------------------------------------------------------------|
B|--17brb-17b-1517hb~---------14-15~--15*b-14--------------------------------------|
G|---------------------/14-16-----------------1414~~--/121112-11-------------------|
D|---------------------------------------------------------------12~12*-11-11-12~~-|
A|---------------------------------------------------------------------------------|
E|---------------------------------------------------------------------------------|

e|-----------------------------------------------------------------------------------|
B|-----------------------------------------------------------------------------------|
G|--------------------------------------------------------------------11-12-14-12-11-|
D|-------------------11-12-14-12-11-14-12-11-----------------11-12-14----------------|
A|----------11-12-14--------------------------14-12-11-12-14-------------------------|
E|-10-12-14--------------------------------------------------------------------------|

e|-----------------------------------14-15p14----------------------------17-15p14------|
B|--/14-15-17--/15~----15~----15-17------------15------15-------17---------------—15~--|
G|------------------14-----14----------------------/14----14-14----14-14---------------|
D|-------------------------------------------------------------------------------------|
A|-------------------------------------------------------------------------------------|
E|-------------------------------------------------------------------------------------|


e|------------------1717~--17br--------17-14-15-1717~~----------|
B|------14----15--------------------15-----------------2.8+-----|
G|--/14----14----14--------------14-----------------------------|
D|--------------------------------------------------------------|
A|--------------------------------------------------------------|
E|--------------------------------------------------------------|
                                                             ^^^Dip with whammy
e|------------------------14-15p14-------------------------------------------|
B|-/15~----15~----15-17-------------15-------------------------------14br-14-|
G|------14-----14-----------------------14-14p12p11-12~~11-11-12/14----------|
D|---------------------------------------------------------------------------|
A|---------------------------------------------------------------------------|
E|---------------------------------------------------------------------------|

e|------------------------------------------|
B|--14-1515~~~-----------17brb-17b-1517hb~--|
G|------------------------------------------|
D|--------------7/9\9~~---------------------|
A|------------------------------------------|
E|------------------------------------------|

e|------------------------------------------------------------------------------|
B|------------------------------------------------------------------------------|
G|--------------------------------------------------------------------11-12-14--|
D|-------------------11-12-14-12-11-14-12-11-----------------11-12-14-----------|
A|----------11-12-14--------------------------14-12-11-12-14--------------------|
E|-10-12-14---------------------------------------------------------------------|

e|------------------------------------------------------------10-12-14-12-10-14-12-10-|
B|---------------------------------------------------10-12-14-------------------------|
G|--12-11-14-12-11-14-12-11-----------------11-12-14----------------------------------|
D|--------------------------14-12-11-12-14--------------------------------------------|
A|------------------------------------------------------------------------------------|
E|------------------------------------------------------------------------------------|

e------------------17b~~17~~--/15-14--15-14-12---12--------------------------------------|
B|-14-12-10-12/14-----------------------------15----15-14-15-14-12-----------------------|
G|-----------------------------------------------------------------11-12-11-12/14-14~~---|
D|---------------------------------------------------------------------------------------|
A|---------------------------------------------------------------------------------------|
E|---------------------------------------------------------------------------------------|

e|----------------------------|
B|-----8p7-8p7---8p7---8/10~~-|
G|--/7---------7-----7--------|
D|----------------------------|
A|----------------------------|
E|----------------------------|
e|----------------------------|
 |--PM        PM    PM
e|-----------------------------------------------------------------------|
B|-----------------------------------------------------------------------|
G|-----------------------------------------------------------------------|
D|--7~~------5p4---5p4---5hbr---5p4----5hbr----5p4--5hbr---5p4-----------|
A|-------55------5-----5------5------5------5------5-----5-----5-5/7-----|
E|-------------------------------------------------------------------5~~-|
|        PM     PM    PM     PM     PM     PM     PM    PM
e|--------------------------------------------|
B|----------------------/7-8-7/15~~---17b17~~-|
G|----------/7-7-6-7*~~-----------------------|
D|--------------------------------------------|
A|--------------------------------------------|
E|-3-2-3*~~-----------------------------------|
  PM-PM     (Pinch harmonic is optional)
e|----------17~-----------15-14-15-17~-15-14-15-14-------------------17b17~~-|
B|--15~-15~-----15~--------------------------------15------------------------|
G|------------------14~~------------------------------14-12p11-12~~----------|
D|---------------------------------------------------------------------------|
A|---------------------------------------------------------------------------|
E|---------------------------------------------------------------------------|

e|--19brb~~--21brb~~21~-21-19-21-22~~22~~22-21-19--19-17--15141514----15p14----17~17~|
B|--x--------x-------------------x---x-----------------------------15-------15-------|
G|--x--------x-------------------x---x-----------------------------------------------|
D|--x--------x-------------------x---x-----------------------------------------------|
A|-----------------------------------------------------------------------------------|
E|-----------------------------------------------------------------------------------|

e|------------------------------------------------------|
B|------------------------------------------------------|
G|------------------------------------------------------|
D|--5-----5-------5-^--^--7-----7-------7--^--^--/9-7~~-|
A|--5-5-5-5-5-5-5-5-^--^--7-7-7-7-7-7-7-7--^--^---------|
E|--3-3-3-3-3-3-3-3-^--^--5-5-5-5-5-5-5-5--^--^---------|
|    PMPM  PMPMPM          PMPM  PMPMPM
e|------------------------------------------------------------------------------------|
B|--------------------------7---8---8//1010~~-10/8-7-8-7------------8--7-8-7-8/1010~~-|
G|--7--6-7-6-7/99~~--7-9-7----7---7----------------------7~-6/77+^^-------------------|
D|------------------------------------------------------------------------------------|
A|------------------------------------------------------------------------------------|
E|------------------------------------------------------------------------------------|

e|----------------------------------------------------------17~~-15141514------------|
B|--14-14-14--15----15----15/17-17~~-15-17-15—17b-17b-17p15--------------15-14b-14~--|
G|---------------14----14------------------------------------------------------------|
D|-----------------------------------------------------------------------------------|
A|-----------------------------------------------------------------------------------|
E|-----------------------------------------------------------------------------------|

e|/15-14-15-14-15--171717~21-21b--21b--21b-22-21-22-21-19-21-19-17-19-17-15-17-15-14-15|
B|---------------------------x----x----x-----------------------------------------------|
G|---------------------------x----x----x-----------------------------------------------|
D|---------------------------x----x----x-----------------------------------------------|
A|-------------------------------------------------------------------------------------|
E|-------------------------------------------------------------------------------------|

e|--------------10---9---7----------------------------------------------------|
B|--7-7-7-8-7-7----7---7---7//10~~--------------------------------------------|
G|--7-------------------------------------------------------------------------|
D|----------------------------------5-5-5-4-5-5-5//7-7~~----------------------|
A|----------------------------------------------------------------------------|
E|----------------------------------------------------------------------------|
|    PMPM  PMPM   PM  PM             PMPM  PMPM
e|------------------------14-15p14--------------------------17--15p14--------|
B|-/15~----15~----15-17------------15~---/15~-----15~----15------------15~---|
G|------14-----14-----------------------------14-----14----------------------|
D|---------------------------------------------------------------------------|
A|---------------------------------------------------------------------------|
E|---------------------------------------------------------------------------|

e|----------17~-14-15-1717~~17brb----------17--14-15-1717~~----7+^-^-^---|
B|--/14-15------------------x------/14-15--------------------------------|
G|--------------------------x--------------------------------------------|
D|--------------------------x--------------------------------------------|
A|-----------------------------------------------------------------------|
E|-----------------------------------------------------------------------|

e|-----------------17-15p14-----------------17-----17br~~-151415-1514--------------|
B|--15----15----15----------15------/14-15-----15---------------------15-----------|
G|-----14----14----------------14---------------------------------------14--1414~~-|
D|---------------------------------------------------------------------------------|
A|---------------------------------------------------------------------------------|
E|---------------------------------------------------------------------------------|

e|---------------22~~~------------------------|
B|--/17~~-/19~~-------------------------------|
G|--------------------------------------------|
D|--------------------------------------------|
A|--------------------------------------------|
E|--------------------------------------------|

************************************

| /   slide up
| \   slide down
| h   hammer-on
| p   pull-off
| ~   vibrato
| +   harmonic
| x   Mute note
| b   Bend
| pb  Pre-bend
| br  Bend release
| pbr Pre-bend release
| brb Bend release bend
| *   Pinch Harmonic
| ^ ^ ^ Whammy Dip

************************************

I've seen plenty and plenty of requests for this from people, I have ots of spare time. 
sure it's 100% accurate.
Suggest correction
Creating personal tab
Creating personal tab
You can edit any tab online and save it as your Personal.

You can edit, replace or remove any tab part or add personal notes – all changes will be seen only by you.

Personal tabs can be accessed anytime from any device, even offline.
Learn more »
Give kudos to tab author, rate the tab!
1 2 3 4 5
comments
print report bad tab
guest
You may want to rate the tab now too:
select rating
Wanna post a correction for this tab? Suggest correction