Oops, an error
Loading. Please wait.

Pans Labyrinth The Movie - Lullaby Tab

11,645 views 6 this week
4 commentsread comments
1 2 3 4 5
excellent!
x 5
add to favorites
launch autoscroll
font size
0
reset
how to read this tab
guitar tuner
Tab Pro tools
  • play this tab
  • loop segment
  • change instrument
  • show fretboard
  • metronome
×
Best way to learn
"Pans Labyrinth The Movie - Lullaby"
Autoscroll
slow
fast
+/-
esc
set tempo
stop
Contributor
Difficulty
novice
First tab.
Accidentally bumped my guitar after watching Pan's Labyrinth, and just happened to hear 
e string.

Decided to tab the full melody because the last one only had half.


e|--0----------0--1--0----0------------0--1----------------------0-------|
B|----3--1--3----------------3--1--3----------3--3--1--0--1--3------3----|
G|-----------------------------------------------------------------------|
D|-----------------------------------------------------------------------|
A|-----------------------------------------------------------------------|
E|-----------------------------------------------------------------------|


e|--0--------0--1--3---0-------------------------------------------------|
B|-----------------------------------------------------------------------|
G|-----------------------------------------------------------------------|
D|-----------------------------------------------------------------------|
A|-----------------------------------------------------------------------|
E|-----------------------------------------------------------------------|
comments
print report bad tab
4 comments total. Showing first comments.
0 reply
iamalexthisismy wrote on February 18 2015, 05:13 am, edited at 05:16 am

e]------------------------------------------------------------------]B]--------------3-x2---------------------------------------------------]G]-----5-x2-------------5-3---3-5-6-5--5-3---3-5-6-3-5h6-8po-5----------]D]---2--------2-------------6--------------6----------------------------]A]-0---------2--------------------------------------------------------] E]------------------------------------------------------------------]
There's a bit more to it but that's what i got... just play with it and you'll figure it out. :)

0 reply
iamalexthisismy wrote on February 18 2015, 05:17 am

e]------------------------------------------------------------------]
B]--------------3-x2---------------------------------------------------]
G]-----5-x2-------------5-3---3-5-6-5--5-3---3-5-6-3-5h6-8po-5----------]
D]---2--------2-------------6--------------6----------------------------]
A]-0---------2--------------------------------------------------------] E]------------------------------------------------------------------]

Theres a bit more to it but thats what i got...

0 reply
iamalexthisismy wrote on February 18 2015, 05:17 am

e]------------------------------------------------------------------]
B]--------------3-x2---------------------------------------------------]
G]-----5-x2-------------5-3---3-5-6-5--5-3---3-5-6-3-5h6-8po-5----------]
D]---2--------2-------------6--------------6----------------------------]
A]-0---------2--------------------------------------------------------] E]------------------------------------------------------------------]

Theres a bit more to it but thats what i got...

I want to post or [tab]
guest
You may want to rate the tab now too:
select rating
Please do not post tabs as comments. Select "correction" instead!