Oops, an error
Loading. Please wait.

Parallel Lines - Now That Your Gone Bass Tab

78 views 1 this week
no commentswrite comment
1 2 3 4 5
3 more votes to show rating
add to favorites
launch autoscroll
font size
0
reset
guitar tuner
Autoscroll
slow
fast
+/-
esc
set tempo
stop
Help us to improve Ultimate-Guitar.com Take our survey!
×
Author
Now that your gone - Parallel lines

I've played this on guitar and the song has good Rhythm and sounds great so I tabbed out 
bass line I'm 95% sure that this is right.

Tuning: EADG

Intro:

G|--------------------------------|
D|--------------------------------|
A|---------777--------------------|(X4)
E|---99------------77------555----|

Verses:

G|--------------------------------|
D|--------------------------------|
A|---------7----------------------|(X2)
E|---9------------7--------5------|

Chorus:

G|--------------------------------|
D|--------------------------------|
A|---------777--------------------|(X4)
E|---99------------77------555----|

Solo:

G|--------------------------------|
D|--------------------------------|
A|---------777--------------------|
E|---99------------77------555----|
Suggest correction
Give kudos to tab author, rate the tab!
1 2 3 4 5
comments
print report bad tab
guest
You may want to rate the tab now too:
select rating
Wanna post a correction for this tab? Suggest correction