Oops, an error
Loading. Please wait.

Parappa The Rapper - Hair Scare bass

1,126 views 1 this week
2 commentsread comments
1 2 3 4 5
2 more votes to show rating
add to favorites
×
Save as Personal and add changes to this tab that will be seen only by you. Learn more ›
×
You can save this tab as Personal to edit and correct it or add notes. All changes will be seen only by you. Learn more »
launch autoscroll
font size
0
reset
guitar tuner
edit
Autoscroll
slow
fast
+/-
esc
set tempo
stop
Author
Difficulty
|-------7--9--------------------------------2--3-----------------|x A lot
|-------------------------3--5-----------------------------------|
|-------------------------------00-1-2-3-------------------------|
|-0-----------00-1-2-3----------------------------00-1-2-3--3--3-|


|--------------|---7---------|---------------|-----------------|x2
|---7----9---10|-------2---3-|---7---9---10--|---2---5----6----|
|--------------|-5-----------|---------------|-----------------|
|-5----7---8---|-----0---1---|-5---7---8-----|-0---3---4-----4-|

|-------------------|----------------------------|------------------------|
|----7-----9----10--|--------7-----9----10-----9-|----7-----9----11-----9-|
|-------------------|----------------------------|------------------------|
|-5-----7-----8-----|-44--5-----7-----8-----7----|-5-----7-----9-----7----|

|-12--------------------12\-|
|-----14--12--9h11----------|
|-------------------12------|
|---------------------------|

The last note is just open E. Add style and personal flair where needed.

Credit goes to yta2 on Youtube for creating the bass part, I just learned it from him.
Suggest correction
Creating personal tab
Creating personal tab
You can edit any tab online and save it as your Personal.

You can edit, replace or remove any tab part or add personal notes – all changes will be seen only by you.

Personal tabs can be accessed anytime from any device, even offline.
Learn more »
Give kudos to tab author, rate the tab!
1 2 3 4 5
comments
print report bad tab
2 comments total.
0 reply
bowelninjer 10 Sep 22, 2010 02:02 PM

This is brilliant! Are you thinking of tabbing any more of yta2's bass covers?

+1 reply
JohnGrimm 52 Sep 23, 2010 02:09 AM

Yes, actually. I already got his cover of Toasty Buns down, I'll upload it when I get a chance to write it down.

guest
You may want to rate the tab now too:
select rating
Wanna post a correction for this tab? Suggest correction