Oops, an error
Loading. Please wait.

Park Jefferson - Better Boy Acoustic Tab

1,020 views 6 this week
1 commentread comment
1 2 3 4 5
please rate
add to favorites
launch autoscroll
font size
0
reset
how to read this tab
guitar tuner
Tab Pro tools
  • play this tab
  • loop segment
  • change instrument
  • show fretboard
  • metronome
×
Best way to learn
"Park Jefferson - Better Boy Acoustic"
Autoscroll
slow
fast
+/-
esc
set tempo
stop
Contributor
(/) Slide Up  (\) Slide Down  (h) Hammer On  (p) Pull Off  (b) Bend (r) Release (v) Vibrato
Real quick tab in daeac#e
http://www.youtube.com/watch?v=Qpm1ubSzI9Q Watch THIS to play along to figure out how 
all the chords go and everything but the whole tab is in order
I didnt want to change the tuning in the tab but it goes like this:


E
C#
A
E
A
D
Have fun

E|-----------------------------------|
B|-----------------------------------|
G|-----0-----0-----4--2--0--------0--|
D|--------------------------0--2-----|
A|-----------------------------------|
E|--4-----2-----0--------------------|



E|-----------------------------------|
B|-----------------3--1--0--------0--|
G|-----0-----0--------------0--2-----|
D|-----------------------------------|
A|-----------------------------------|
E|--4-----2-----0--------------------|



E|--0--0--0--|
B|--0--0--0--|
G|--0--0--0--|
D|--5--4--5--|
A|--4--2--0--|
E|--4--2--0--|



E|-----------0--0-----------|
B|--0--0--0--3--0-----------|
G|--0--2--4--4--4-----------|
D|--0-----------------------|
A|--0-----------------------|
E|--0--------------4--2--0--|


Palm Muted
E|--------|
B|--------|
G|--------|
D|--0--4--|
A|--0--2--|
E|--0--2--|



E|-----------0--0--0--0-----|
B|-----------0--0--3--0-----|
G|-----------2--4--4--4-----|
D|--5--4--5--0--0--0--0-----|
A|--0--2--4-----------------|
E|--0--2--4-----------------|



E|-----0-----------------0-----------------|
B|-----3--------------0-----0--------0-----|
G|--------0--2--4-----------------0-----0--|
D|-----------------------------------------|
A|-----------------------------------------|
E|--0--------------4-----------2-----------|




E|--0--0--0--0--0--0--|
B|--0--0--0--0--0--0--|
G|--0--0--0--0--0--0--|
D|--0--0--0--5--5--4--|
A|--0--0--0--0--4--2--|
E|--0--4--2--0--4--2--|



E|-----------|
B|-----------|
G|-----------|
D|--5--4--5--|
A|--4--2--0--|
E|--4--2--0--|



E|--------|
B|--------|
G|--------|
D|--0--5--|
A|--0--0--|
E|--0--0--|
comments
We did not receive enough feedback on this tab! Please rate:
print report bad tab
1 2 3 4 5
1 comment total.
+1 reply
himynamesian wrote on March 6 2013, 08:20 pm

E|-----------------------------------|
B|-----------------------------------|
G|-----0-----0-----2h4p2p0--------0--|
D|--------------------------0--2-----|
A|-----------------------------------|
E|--4-----2-----0--------------------|

E|-----------------------------------|
B|-----------------1h3p1p0--------0--|
G|-----0-----0--------------0--2-----|
D|-----------------------------------|
A|-----------------------------------|
E|--4-----2-----0--------------------|

I want to post or [tab]
guest
You may want to rate the tab now too:
select rating
Please do not post tabs as comments. Select "correction" instead!