Oops, an error
Loading. Please wait.

Pavan Choudary - Ae Mere Humsafar Tab

13 views 1 this week
no commentswrite comment
1 2 3 4 5
3 more votes to show rating
add to favorites
launch autoscroll
font size
0
reset
how to read this tab
guitar tuner
Autoscroll
slow
fast
+/-
esc
set tempo
stop
Help us to improve Ultimate-Guitar.com Take our survey!
×
Author
Intro
E||-------------------5--------|
B||--6-5---6-5----6-6---8-6-5--|
G||------7-----7,--------------|
D||----------------------------|
A||----------------------------|
E||----------------------------|
Ae Mere Humsafar, Ek Zara Intezaar [1X]

E||-------------------------------|
B||------5--------5------6-5-5----|
G||--5-5---7,-5-5---7,-5-------7--|
D||-------------------------------|
A||-------------------------------|
E||-------------------------------|
Sun Sadaayein, De Rahi Hain, Manzil Yaar Ki [1X]

E||------5-------------------------------|
B||--------8-6-5-6-8-5,-----8-6-5---5-6--|
G||--7-7----------------5-5-------7------|
D||--------------------------------------|
A||--------------------------------------|
E||--------------------------------------|
Ab Hai Judaai Ka Mausam, Do Pal Ka Mehmaan

E||------5-------------------------------|
B||--------8-6-5-6-8-5,-----8-6-5---5-6--|
G||--7-7----------------5-5-------7------|
D||--------------------------------------|
A||--------------------------------------|
E||--------------------------------------|
Kaise Naa Jaayega Ndhera, Kyoon Naa Thamega Toofan

E||------7-5-----------------|
B||--8-8-----7-5,---6-5-5----|
G||---------------5-------7--|
D||--------------------------|
A||--------------------------|
E||--------------------------|
Kaise Naa Milegi, Manzil Pyaar Ki

E||-------------------5--------|
B||--6-5---6-5----6-6---8-6-5--|
G||------7-----7,--------------|
D||----------------------------|
A||----------------------------|
E||----------------------------|
Ae Mere Humsafar, Ek Zara Intezaar [1X]

E||-------------------------------|
B||------5--------5------6-5-5----|
G||--5-5---7,-5-5---7,-5-------7--|
D||-------------------------------|
A||-------------------------------|
E||-------------------------------|
Sun Sadaayein, De Rahi Hain, Manzil Yaar Ki [1X]

=================================
Suggest correction
Give kudos to tab author, rate the tab!
1 2 3 4 5
comments
print report bad tab
guest
You may want to rate the tab now too:
select rating
Wanna post a correction for this tab? Suggest correction