Oops, an error
Loading. Please wait.

Perfect Ending - Sleepwalker tab

482 views 1 this week
1 commentread comment
1 2 3 4 5
3 more votes to show rating
add to favorites
×
Save as Personal and add changes to this tab that will be seen only by you. Learn more ›
×
You can save this tab as Personal to edit and correct it or add notes. All changes will be seen only by you. Learn more »
launch autoscroll
font size
0
reset
how to read this tab
guitar tuner
edit
Autoscroll
slow
fast
+/-
esc
set tempo
stop
This is one of my favorite songs on DDR (Ultramix 2) and I noticed there were no
tabs of it anywhere, so here it is! Look it up on youtube for the recording

Title: Sleepwalker
Artist: Perfect Ending
Tuning: Drop D


Intro:

Guitar 1 (lead distortion)
E--------------------------------------------------------------------------------------------|
B--------------------------------------------------------------------------------------------|
G--------------------------------------------------------------------------------------------|
D-------5---4---------5--4-----5---4------------------5---4---------7--5--4--5---4-----------|
A----------------5-----------5-----------5-----------------------4------------------------5--|
D--------------------------------------------------------------------------------------------|
x2

Guitar 2 (distortion)
E------------------------------------------|
B------------------------------------------|
G-----------------5-5-5-5-7-7-7-7-7-7-7-7--|   x4
D-------0-0-0-0-5-5-5-5-7-7-7-7-7-7-7-7----|
A-------0-0-0-0-3-3-3-3-5-5-5-5-5-5-5-5----|
D-------0-0-0-0----------------------------|


Verse:

Guitar 1 & 2 (heavy distortion)
E------------------------------------------------------------------------|
B------------------------------------------------------------------------|
G-----------------------5-5-5-5-5-5-5-5-7-7-7-7-7-7-7-7-7-7-7-7-9\7-9\7--|   x4
D-------0-0-0-0-0-0-0-0-5-5-5-5-5-5-5-5-7-7-7-7-7-7-7-7-7-7-7-7-9\7-9\7--|
A-------0-0-0-0-0-0-0-0-3-3-3-3-3-3-3-3-5-5-5-5-5-5-5-5-5-5-5-5-7\5-7\5--|
D-------0-0-0-0-0-0-0-0--------------------------------------------------|
    PM  .........    .....................................


Chorus:

Guitar 1 & 2 (heavy distortion)
E------------------------------------------------------------------------|
B------------------------------------------------------------------------|
G-----------------------5-5-5-5-5-5-5-5-7-7-7-7-7-7-7-7-7-7-7-7-7-7-7-7--|   x2
D-------0-0-0-0-0-0-0-0-5-5-5-5-5-5-5-5-7-7-7-7-7-7-7-7-7-7-7-7-7-7-7-7--|
A-------0-0-0-0-0-0-0-0-3-3-3-3-3-3-3-3-5-5-5-5-5-5-5-5-5-5-5-5-5-5-5-5--|
D-------0-0-0-0-0-0-0-0--------------------------------------------------|


Verse 2:

Same as the intro, but with the volume up on Guitar 2


Outro:

Guitar 1 (lead distortion)
E--------------------------------------------------------------------------------------------|
B--------------------------------------------------------------------------------------------|
G--------------------------------------------------------------------------------------------|
D-------5---4---------5--4-----5---4------------------5---4---------7--5--4--5---4-----------|
A----------------5-----------5-----------5-----------------------4------------------------5--|
D--------------------------------------------------------------------------------------------|
   x1

Guitar 2 (no distortion)
E----------------------------|
B-------------3----------3---|
G----------0----------0------|   x4
D-------0----------0---------|
A----2----------2------------|
D----------------------------|


Order:
Intro
Verse
Chorus
Verse 2
Intro
Outro

            
            
Suggest correction
Creating personal tab
Creating personal tab
You can edit any tab online and save it as your Personal.

You can edit, replace or remove any tab part or add personal notes – all changes will be seen only by you.

Personal tabs can be accessed anytime from any device, even offline.
Learn more »
Give kudos to tab author, rate the tab!
1 2 3 4 5
comments
print report bad tab
1 comment total.
0 reply
TheCrazyWaffle 50 Dec 15, 2010 08:53 PM

Hey, first off, I wanted to say thank you so damn much for posting this! I wanted to learn this song so damn much ever since I heard it from the game. For the most part you have it all down it sounds like, but I just have a few suggestions.

On the end part of your Lead Guitar Intro and Outro, I hear a slide to the 7.
e|-----------------------------------------
B|-----------------------------------------
G|-----------------------------------------
D|-5----4--------5/7--5--4--5---4----------
A|------------4--------------------------5-
D|-----------------------------------------

And then in all your Second Guitar parts instead of open power chords I think it's Power chords on 2.

And the last suggestion would be that in the Verses and the Chorus, instead of both guitars playing the power chords, Guitar 1 is playing this riff palm muted over and over.
e|----------
B|----------
G|----------
D|-55444----
A|------555-
D|----------
........

Just try em out and see what you think :]

guest
You may want to rate the tab now too:
select rating
Wanna post a correction for this tab? Suggest correction