Oops, an error
Loading. Please wait.

Peroxwhygen - Explanation Tab

2,033 views 6 this week
no commentswrite comment
1 2 3 4 5
x 5
add to favorites
launch autoscroll
font size
0
reset
how to read this tab
guitar tuner
Autoscroll
slow
fast
+/-
esc
set tempo
stop
Help us to improve Ultimate-Guitar.com Take our survey!
×
Author
Difficulty
Tuning
novice
E A D G B E
I am a Jeff Hardy fan, so I decided to make my first tab a song by him. I was listening 
Explanation and I wanted to tab it, so here is the intro. Again this is my first tab.

e|------------------------------------------|
B|------------------------------------------|
G|------------------------------------------|
D|-----1--3--1------1--3--1-----3-3--3-3----|
A|---3------------3----------3-1----1-------|
E|------------------------------------------|

-From the editor- You can also use this, which I find to be a little lower

e|------------------------------------------|
B|------------------------------------------|
G|------------------------------------------|
D|------------------------------------------|
A|---3-6-8-6-3-6-8-6-3---8-8---8-8----------|
E|---------------------6-----6--------------|  x6

e|------------------------------------------|
B|-----4------------------------------------|
G|------------------------------------------|
D|------------------------------------------|
A|---3-----1-6------------------------------|
E|-------4----------------------------------| 
Suggest correction
comments
print report bad tab
guest
You may want to rate the tab now too:
select rating
Wanna post a correction for this tab? Suggest correction