Oops, an error
Loading. Please wait.

Peter Van Reesema - Tamaflu bass

47 views 1 this week
no commentswrite comment
1 2 3 4 5
3 more votes to show rating
add to favorites
×
Save as Personal and add changes to this tab that will be seen only by you. Learn more ›
×
You can save this tab as Personal to edit and correct it or add notes. All changes will be seen only by you. Learn more »
launch autoscroll
font size
0
reset
guitar tuner
edit
Autoscroll
slow
fast
+/-
esc
set tempo
stop
Author
Difficulty
Verse ( G  Bm  C )
-----------------------|
-----------------------|
-----5-----2---3-------|
---3-------------------| Add Licks From Em Pentatonic


Chorus ( C  F  C  G )
-----------------------0----4-2--|
-------2--3------2--0------------|
--3------------------------------|
---------------------------------| The "B" and "A" Are Pick Up Notes


Verse ( G  Bm  C )
-----------------------|
-----------------------|
-----5-----2---3-------|
---3-------------------| Add Licks From Em Pentatonic

Pickup Into Bridge
-----------------------------|
-----------------------------|
-----5-----2---3-----5-6-7-8-|
---3-------------------------| "D" "Eb" "E" "F" Are Split Triplet Pickup


Bridge ( F  A7  Bb  G7 )
-----------------------|
-----------------------|
----------1------------|
--1---5-------3--------|


Bridge To Chorus ( G )
----------------------------|
----------------------------|
-----------------10-8-7-5-3-|
---3---3---3----------------|


Chorus ( C  F  C  G )
-----------------------0----4-2--|
-------2--3------2--0------------|
--3------------------------------|
---------------------------------| The "B" and "A" Are Pick Up Notes


Verse ( G  Bm  C )
-----------------------|
-----------------------|
-----5-----2---3-------|
---3-------------------| Add Licks From Em Pentatonic

The End

Verse 1
I only knew you for five days
But there’s not a time those days I don’t crave
They say I can only take you twice a day
So how about we speed up the clock
Cause oh Tammy baby you got my heart on lock


Chorus 1
So when Mary told me I was just a mess
She told me I’d find love at my local CVS
So I may look distressed but it’s from finding love at my local CVS


Verse 2
No Lyrics


Bridge
So when Ms. Westoff walked into the room
She said alright sit down cause here’s the news
Your diagnosis says you got the Tammy blues
And that’s all I knew


Chorus 2
So when Mary told me I was just a mess
She told me I’d find love at my local CVS
So I may look distressed but it’s from finding love at my local CVS

            
            
Suggest correction
Creating personal tab
Creating personal tab
You can edit any tab online and save it as your Personal.

You can edit, replace or remove any tab part or add personal notes – all changes will be seen only by you.

Personal tabs can be accessed anytime from any device, even offline.
Learn more »
Give kudos to tab author, rate the tab!
1 2 3 4 5
comments
print report bad tab
guest
You may want to rate the tab now too:
select rating
Wanna post a correction for this tab? Suggest correction