Oops, an error
Loading. Please wait.

Phantasmagoria - Eternal Silence tab

4,615 views 1 this week
no commentswrite comment
1 2 3 4 5
3 more votes to show rating
add to favorites
×
Save as Personal and add changes to this tab that will be seen only by you. Learn more ›
×
You can save this tab as Personal to edit and correct it or add notes. All changes will be seen only by you. Learn more »
launch autoscroll
font size
0
reset
how to read this tab
guitar tuner
edit
Autoscroll
slow
fast
+/-
esc
set tempo
stop
Author
Difficulty
ETERNAL SILENCE

THIS IS NOT THE REAL TABS ITS JUST SOMETHING I MADE UP TO HAVE FUN TO PLAY WITH IT.


intro

E---------------------------------------------------------------------------------|
B--12-12-12--10-8---8--7-8-7------------------------------------------------------|
G----------------------------7-7----7-7--5-5-5-4-5-4------------------------------|
D----------------------------------------------------5-5---7-5-4-5---5-5-7-5-4-5--|
A---------------------------------------------------------------------------------|
E---------------------------------------------------------------------------------|


E---------------------------------------------------------------------------------|
B-------------------9-7-6--8----12-12-12-10-8---8--7-8--10---------------/8-8-8-8-|
G----------7-5----5-----------------------------------------7-7---/7-7-7----------|
D--7-5---5-----7------------------------------------------------------------------|
A------7--------------------------------------------------------------------------|
E---------------------------------------------------------------------------------|


E-------------10------------------------------------------------------------------|
B--10-8-7-8------8-7-8--7-8----15--17-----------12b--12b---12b--------------------|
G--------------------------------------12--14---14b--14b---14b--------------------|
D---------------------------------------------------------------------------------|
A---------------------------------------------------------------------------------|
E---------------------------------------------------------------------------------|

ano oka no mukou

ishidatami no michi ni ukabu hidamari to

anata no suki na PIANO no ne
E---------------------------------------------------------------------------------|
B---------------------------------------------------------------------------------|
G---------------------------------------------------------------------------------|
D-----2--2-2-5--5-5---4--4--4-----------------------------------------------------|
A-----2--2-2-5--5-5---4--4--4-----------------------------------------------------|
E-----0--0-0-3--3-3---2--2--2-----------------------------------------------------|
arifureta hibi no

dekigoto ga itsumademo kono oto ni yadoru

kasa ga naku hi mo  tsuki michiru hi mo

futari deatta hi no koto mo

ikite iru koto  nagarete iru chi wo
E---------------------------------------------------------------------------------|
B---------------------------------------------------------------------------------|
G---------------------------------------------------------------------------------|
D-2--2-2--2-2---5--5-5--5-5--5-5--5-----------------------------------------------|
A-2--2-2--2-2---5--5-5--5-5--5-5--5-----------------------------------------------|
E-0--0-0--0-0---3--3-3--3-3--3-3--3-----------------------------------------------|
kodou wo kikasete kure
E---------------------------------------------------------------------------------|
B---------------------------------------------------------------------------------|
G-5-5--5-5--5--5-5---5-7--7-7---7-7--7-7------------------------------------------|
D-5-5--5-5--5--5-5---5-7--7-7---7-7--7-7------------------------------------------|
A-3-3--3-3--3--3-3---3-5--5-5---5-5--5-5------------------------------------------|
E---------------------------------------------------------------------------------|

I wish... heaven aitakute
E---------------------------------------------------------------------------------|
B---------------------------------------------------------------------------------|
G---------5-5-5-5-7-7-7-7-9-9-9-9-------------------------------------------------|
D-5-5-5-5-5-5-5-5-7-7-7-7-9-9-9-9-------------------------------------------------|
A-5-5-5-5-3-3-3-3-5-5-5-5-7-7-7-7-------------------------------------------------|
E-3-3-3-3-------------------------------------------------------------------------|
itsumademo  arifureta  hibi wo ayumu
E---------------------------------------------------------------------------------|
B---------------------------------------------------------------------------------|
G-5-5-5-5-------------------------------------------------------------------------|
D-5-5-5-5-5-5-5-5-4-4-4-4-2-2-2-2-------------------------------------------------|
A-3-3-3-3-5-5-5-5-4-4-4-4-2-2-2-2-------------------------------------------------|
E---------3-3-3-3-2-2-2-2-0-0-0-0-------------------------------------------------|
I wish... heaven aitakute
E---------------------------------------------------------------------------------|
B---------------------------------------------------------------------------------|
G---------5-5-5-5-7-7-7-7-9-9-9-9-------------------------------------------------|
D-5-5-5-5-5-5-5-5-7-7-7-7-9-9-9-9-------------------------------------------------|
A-5-5-5-5-3-3-3-3-5-5-5-5-7-7-7-7-------------------------------------------------|
E-3-3-3-3-------------------------------------------------------------------------|
toki no yukue  kono mama de  isasete
E---------------------------------------------------------------------------------|
B---------------------------------------------------------------------------------|
G-5-5-5-5--------------------------5---5-5---5------------------------------------|
D-5-5-5-5-5-5-5-5-4-4-4-4-2-2-2-2--5---5-5---5------------------------------------|
A-3-3-3-3-5-5-5-5-4-4-4-4-2-2-2-2--3---3-3---3------------------------------------|
E---------3-3-3-3-2-2-2-2-0-0-0-0-------------------------------------------------|
hitori de mukatta

tsukiakari no michi de omoikaesu no wa

anata to kiita PIANO no ne
E---------------------------------------------------------------------------------|
B---------------------------------------------------------------------------------|
G---------------------------------------------------------------------------------|
D-----2--2-2-5--5-5---4--4--4-----------------------------------------------------|
A-----2--2-2-5--5-5---4--4--4-----------------------------------------------------|
E-----0--0-0-3--3-3---2--2--2-----------------------------------------------------|
dare no koe mo iranai

ima mo ano koto ga kikoete kuru kana

kioku wo koete  anata ga mieru

futari deatta hi no you ni

ikite iru koto  nagarete iru chi wo
E---------------------------------------------------------------------------------|
B---------------------------------------------------------------------------------|
G---------------------------------------------------------------------------------|
D-2--2-2--2-2---5--5-5--5-5--5-5--5-----------------------------------------------|
A-2--2-2--2-2---5--5-5--5-5--5-5--5-----------------------------------------------|
E-0--0-0--0-0---3--3-3--3-3--3-3--3-----------------------------------------------|
kodou wo kikasete kure
 E--------------------------------------------------------------------------------|
B---------------------------------------------------------------------------------|
G-5-5--5-5--5--5-5---5-7--7-7---7-7--7-7------------------------------------------|
D-5-5--5-5--5--5-5---5-7--7-7---7-7--7-7------------------------------------------|
A-3-3--3-3--3--3-3---3-5--5-5---5-5--5-5------------------------------------------|
E---------------------------------------------------------------------------------|
I wish... heaven aitakute
E---------------------------------------------------------------------------------|
B---------------------------------------------------------------------------------|
G---------5-5-5-5-7-7-7-7-9-9-9-9-------------------------------------------------|
D-5-5-5-5-5-5-5-5-7-7-7-7-9-9-9-9-------------------------------------------------|
A-5-5-5-5-3-3-3-3-5-5-5-5-7-7-7-7-------------------------------------------------|
E-3-3-3-3-------------------------------------------------------------------------|
amari ni mo  tsumetakute  shizuka sugite
E---------------------------------------------------------------------------------|
B---------------------------------------------------------------------------------|
G-5-5-5-5-------------------------------------------------------------------------|
D-5-5-5-5-5-5-5-5-4-4-4-4-2-2-2-2-------------------------------------------------|
A-3-3-3-3-5-5-5-5-4-4-4-4-2-2-2-2-------------------------------------------------|
E---------3-3-3-3-2-2-2-2-0-0-0-0-------------------------------------------------|
I wish... heaven aitakute
E---------------------------------------------------------------------------------|
B---------------------------------------------------------------------------------|
G---------5-5-5-5-7-7-7-7-9-9-9-9-------------------------------------------------|
D-5-5-5-5-5-5-5-5-7-7-7-7-9-9-9-9-------------------------------------------------|
A-5-5-5-5-3-3-3-3-5-5-5-5-7-7-7-7-------------------------------------------------|
E-3-3-3-3-------------------------------------------------------------------------|
toki no tobira  aku koto wa nai  anata no hitomi mo
E---------------------------------------------------------------------------------|
B---------------------------------------------------------------------------------|
G-5-5-5-5---------------------------------5-5--7-8--------------------------------|
D-5-5-5-5-5-5-5-5-4-4-4-4-2-2-2-2---------5-5--7-8--------------------------------|
A-3-3-3-3-5-5-5-5-4-4-4-4-2-2-2-2---------3-3--5-6--------------------------------|
E---------3-3-3-3-2-2-2-2-0-0-0-0-------------------------------------------------|
eien no seijaku na no ka? nozomi wa kanaerareru no ka?   
E---------------------------------------------------------------------------------|
B---------------------------------------------------------------------------------|
G-9-x-x-9--9-7-x-x-7--7-5-x-x-5--5------------------------------------------------|
D-9-x-x-9--9-7-x-x-7--7-5-x-x-5--5-5-x-x-5--5-4-x-x-4--4-2-x-x-2--2---------------|
A-7-x-x-7--7-5-x-x-5--5-3-x-x-3--3-5-x-x-5--5-4-x-x-4--4-2-x-x-2--2---------------|
E----------------------------------3-x-x-3--3-2-x-x-2--2-0-x-x-0--0---------------|
"sayounara no kotoba wa iwanai."
E---------------------------------------------------------------------------------|
B---------------------------------------------------------------------------------|
G-9-x-x-9--9-7-x-x-7--7-5-x-x-5--5------------------------------------------------|
D-9-x-x-9--9-7-x-x-7--7-5-x-x-5--5-5-x-x-5--5-4-x-x-4--4-2-x-x-2--2---------------|
A-7-x-x-7--7-5-x-x-5--5-3-x-x-3--3-5-x-x-5--5-4-x-x-4--4-2-x-x-2--2---------------|
E----------------------------------3-x-x-3--3-2-x-x-2--2-0-x-x-0--0---------------|

ima sugu anata ni aenai keredo...
E---------------------------------------------------------------------------------|
B---------------------------------------------------------------------------------|
G--------------5-------7----------------------------------------------------------|
D--------------5-------7----------------------------------------------------------|
A--------------3-------5----------------------------------------------------------|
E---------------------------------------------------------------------------------|

solo
     S  S S  S  H          Q
E||------------------------------|
B||--5s-8-5s-8-12~--------10~----|
G||------------------------------|
D||------------------------------|
A||------------------------------|
E||------------------------------|


   S  S  S  S  S  S  S  S  Q      Q
--10------------------------------------|
-----13-12-13-12-10---------------------|
--------------------12-11-12~----11~----|
----------------------------------------|
----------------------------------------|
----------------------------------------|


  S  S S  S  H          Q
------------------------------|
--5s-8-5s-8-12~--------10~----|
------------------------------|
------------------------------|
------------------------------|
------------------------------|


   S  S  S  S  S  S  S  S  Q      Q
--10------------------------------------|
-----13-12-13-12-10---------------------|
--------------------12-11-12~----11S----|
----------------------------------------|
----------------------------------------|
----------------------------------------|


  H          H
----------------------|
----------------------|
--7S--------11--------|
----------------------|
----------------------|
----------------------|


    H          H
------------------------|
--/10S--------13--------|
------------------------|
------------------------|
------------------------|
------------------------|


   S  S  S S  S  S S  S S  S  S  S  S  S  S
----------------------------------------------|
--------------------------------------15------|
-----------9-11----9-11-9-11-12-11-12--L-11-1-|
--12-10-12------12----------------------------|
----------------------------------------------|
----------------------------------------------|


   S  S  S  S  S  S  S  S  S  S  S  S  S.  S.
-----------------------14-------15----15s-22-|
-----15-------17-------------12--L-15--------|
--11--L-11-12--L-12-14--L-14-----------------|
---------------------------------------------|
---------------------------------------------|
---------------------------------------------|


  Q.      S  T   T  E   E   E   S   S
--L-------L-17h-19-17--15~--L--15h-17-|
--------------------------------------|
--------------------------------------|
--------------------------------------|
--------------------------------------|
--------------------------------------|


                       |---3---|
   Q      E     S   S  S   S   S  Q     E
--17b----17br--17p-15-14h-15p-14------------|
---------------------------------15~----L\--|
--------------------------------------------|
--------------------------------------------|
--------------------------------------------|
--------------------------------------------|


  S  S S S  S S S S  S  S  S  S  Q
----10--------------10----------------|
-----------12----------13-12----------|
--9----9-7----9-7-9----------12~-L----|
--------------------------------------|
--------------------------------------|
--------------------------------------|


   S  S  S S S S S S S S S S  Q
-----------------------------------|
--------10-L-----------------------|
--11-12----7-L-7-7-5-5-4-----------|
---------------------------5~-L----|
-----------------------------------|
-----------------------------------|


    S  S  S  S  S  S  S  S  S  S  S  S  S  S
---------------------------19-------19-------|
---------------------------------------------|
---------16-16-------16-16-------16----16----|
--/14-14-------14-14----------14----------14-|
---------------------------------------------|
---------------------------------------------|


   S  S  S  S  S  S  S  S   S  S S  S  E   S
--------19-------19-------/19-20---17~-L--15--|p
----------------------------------------------|
-----16----------------16---------------------|
--14-------14-14----14------------------------|
----------------------------------------------|
----------------------------------------------|


   Q     E   E   E   E   E   E
--15~----L----------------------|
------------15~--L--13--12--13--|
--------------------------------|
--------------------------------|
--------------------------------|
--------------------------------|


   S  S  S  S  S  S  S  S  H
-------------------------------------|
--15-13-12-13-12-10------------------|
--------------------12-11-12~--------|
-------------------------------------|
-------------------------------------|
-------------------------------------|


-----------||
-----------||
-----------||
-----------||
-----------||
-----------||

I wish... heaven kono sekai wo

anata wa mada  shiranakute ii konakute ii

I wish... heaven toki ga kureba

itsu demo  aeru kara
E------------------------------------------------------------------------------------|
B------------------------------------------------------------------------------------|
G------------------------------------------------------------------------------------|
D------------------------------------------------------------------------------------|
A------------------------------------------------------------------------------------|
E--------------------2-----3---------------------------------------------------------|
I wish... heaven ai ni kite
E---------------------------------------------------------------------------------|
B---------------------------------------------------------------------------------|
G---------5-5-5-5-7-7-7-7-9-9-9-9-------------------------------------------------|
D-5-5-5-5-5-5-5-5-7-7-7-7-9-9-9-9-------------------------------------------------|
A-5-5-5-5-3-3-3-3-5-5-5-5-7-7-7-7-------------------------------------------------|
E-3-3-3-3-------------------------------------------------------------------------|
futatabi inochi wo yadoshita kara
E---------------------------------------------------------------------------------|
B---------------------------------------------------------------------------------|
G-5-5-5-5-------------------------------------------------------------------------|
D-5-5-5-5-5-5-5-5-4-4-4-4-2-2-2-2-------------------------------------------------|
A-3-3-3-3-5-5-5-5-4-4-4-4-2-2-2-2-------------------------------------------------|
E---------3-3-3-3-2-2-2-2-0-0-0-0-------------------------------------------------|
I wish... heaven
E---------------------------------------------------------------------------------|
B---------------------------------------------------------------------------------|
G---------5-5-5-5-7-7-7-7---------------------------------------------------------|
D-5-5-5-5-5-5-5-5-7-7-7-7---------------------------------------------------------|
A-5-5-5-5-3-3-3-3-5-5-5-5---------------------------------------------------------|
E-3-3-3-3-------------------------------------------------------------------------|
I will look at
E---------------------------------------------------------------------------------|
B---------------------------------------------------------------------------------|
G---------5-5-5-5-----------------------------------------------------------------|
D-5-5-5-5-5-5-5-5-5-5-5-5---------------------------------------------------------|
A-5-5-5-5-3-3-3-3-5-5-5-5---------------------------------------------------------|
E-3-3-3-3---------3-3-3-3---------------------------------------------------------|
"Flower"
E---------------------------------------------------------------------------------|
B---------------------------------------------------------------------------------|
G--5-5----------------------------------------------------------------------------|
D--5-5----------------------------------------------------------------------------|
A--3-3----------------------------------------------------------------------------|
E---------------------------------------------------------------------------------|
"Flower"
E---------------------------------------------------------------------------------|
B---------------------------------------------------------------------------------|
G---------------------------------------------------------------------------------|
D-5-5-----------------------------------------------------------------------------|
A-5-5-----------------------------------------------------------------------------|
E-3-3-----------------------------------------------------------------------------|
"Flower"
E-----------------------------------------------------------------------------------|
B-----------------------------------------------------------------------------------|
G--5-5---5--------------------------------------------------------------------------|
D--5-5---5--------------------------------------------------------------------------|
A--3-3---3--------------------------------------------------------------------------|
E-----------------------------------------------------------------------------------|
ano hi made...

ENDING SOLO
E---------------------------------------------------------------------------------|
B--12-12-12--10-8---8--7-8-7------------------------------------------------------|
G----------------------------7-7----7-7--5-5-5-4-5-4------------------------------|
D----------------------------------------------------5-5---7-5-4-5---5-5-7-5-4-5--|
A---------------------------------------------------------------------------------|
E---------------------------------------------------------------------------------|


E---------------------------------------------------------------------------------|
B-------------------9-7-6--8----12-12-12-10-8---8--7-8--10---------------/8-8-8-8-|
G----------7-5----5-----------------------------------------7-7---/7-7-7----------|
D--7-5---5-----7------------------------------------------------------------------|
A------7--------------------------------------------------------------------------|
E---------------------------------------------------------------------------------|


E-------------10------------------------------------------------------------------|
B--10-8-7-8------8-7-8--7-8----15--17-----------12b--12b---12b--------------------|
G--------------------------------------12--14---14b--14b---14b--------------------|
D---------------------------------------------------------------------------------|
A---------------------------------------------------------------------------------|
E---------------------------------------------------------------------------------|

E---------------------------------------------------------------------------------|
B-----------------------------------------15----13--12----8--------10-----12---13-|
G--14b---12-----11--12-----7------------------------------------------------------|
D---------------------------------------------------------------------------------|
A---------------------------------------------------------------------------------|
E---------------------------------------------------------------------------------|


E---------------------------------15-14---------15-14-----------------------------|
B---15------------12--------------------15------------15--------------------------|
G------------------------------------------16------------16-----------------------|
D---------------------------------------------------------------------------------|
A---------------------------------------------------------------------------------|
E---------------------------------------------------------------------------------|
THATS ALL I KNOW

THIS IS NOT THE REAL TABS ITS JUST SOMETHING I MADE UP TO HAVE FUN TO PLAY WITH IT.


QUESTION OR COMMENTS? azian_boi916@hotmail.com

http://www.jhouserock.com/portal/index.php?option=com_content&task=view&id=99&Itemid=389
Suggest correction
Creating personal tab
Creating personal tab
You can edit any tab online and save it as your Personal.

You can edit, replace or remove any tab part or add personal notes – all changes will be seen only by you.

Personal tabs can be accessed anytime from any device, even offline.
Learn more »
Give kudos to tab author, rate the tab!
1 2 3 4 5
comments
print report bad tab
guest
You may want to rate the tab now too:
select rating
Wanna post a correction for this tab? Suggest correction