Oops, an error
Loading. Please wait.

Project 1 - Ang Sarap Dito tab

version 1
version 1

Whole song

851 views 1 this week
1 commentread comment
1 2 3 4 5
2 more votes to show rating
add to favorites
×
Save as Personal and add changes to this tab that will be seen only by you. Learn more ›
×
You can save this tab as Personal to edit and correct it or add notes. All changes will be seen only by you. Learn more »
launch autoscroll
font size
0
reset
how to read this tab
guitar tuner
edit
Autoscroll
slow
fast
+/-
esc
set tempo
stop
Before anything else may i respect to my idol, mr.Raimund Marasigan and His Band. My 
Fav. Local Band...
|
Dont e-mail me... i dont want comments or any suggestions... i knw its all NEGATiVE.. BLeeHa
just invite me at You-tube --Find me via channel-  workerguy10

Ang Sarap Dito- Project 1
NOte: dont use an acoustic guitar or ull be discouraged...
TUNING:

COMPLICATED          OR       STANDARD
1.CAPO 2                       EADGBE
2.DROP CH3

intro

if you have Keyboard..fine...this is a guitar Version.
       THIS ONE             OR            THIS ONE          OR           THIS ONE

|---------------------------| |-----------------------------| |---------------------------|
|---------------------------| |-----------------------------| |---------------------------|
|---------------------------| |-----------------------------| |---6---9---4---7--2---9--4-|
|---------------------------| |-------2---------------------| |---------------------------|
|---4----7---2---5--0--7--2-| |---4-------2----5-------7--2-| |---------------------------|
|---------------------------| |--------------------5--------| |---------------------------|

CHORUS:
hmmm...lilipad na akech
Sabayan nyo ako
Ang Sarap Dito
Sa pupuntahan ko...

just a pattern- just lsten to the song.
|-----------------------|
|-----------------------|
|---6--9--4--7-----9--4-|
|---6--9--4--7--7--9--4-|
|---4--7--2--5--7--7--2-|
|---------------5-------|

Bubuhos na ang saya
Tayo na't sumama ka
Ang sarap dito
Sa pupuntahan ko...

Pattern Again-
VERSE 1 AND 2
|---------------------------|
|---------------------------|
|--7---7/9---6---6/7--7-----|
|--7---7/9---6---6/7--7--7--|
|--5---5/7---4---4/5--5--7--|
|------------------------5--|
                              REPEAT IT 5X
|---------------------------|
|---------------------------|
|--7---7/9---7---7/9---8----|
|--7---7/9---7---7/9---8--7-|
|--5---5/7---5---5/7---6--7-|
|-------------------------5-|

Sawa na'ko sa dati
Naiinip parati
Wala na akong magawa
Dito'y sawangsawa
Ayoko na sa ganon
Lahat sobrang tahimik
Gusto ko ng mas maingay
Tumikim na ng tunay

CHORUS:
STRUM PATTERN
|------------------------------------------------------------------------------|
|------------------------------------------------------------------------------|
|--66-66--9--99-99--4--44-44--7--77-77------------9--99-99--4--44-44--4--44-44-|
|--66-66--9--99-99--4--44-44--7--77-77--7--77-77--9--99-99--4--44-44--4--44-44-|
|--44-44--7--77-77--2--22-22--5--55-55--7--77-77--7--77-77--2--22-22--2--22-22-|
|---------------------------------------5--55-55-------------------------------|
REPEAT 
BUT N.A NORMAL WAY         D'ROCKER WAY...


ADLIB
                                                  you MIGHT think that this is
                                                  the right one, but try to listn to the song.
                                                  Coz its just your imagination... its wrong
|----------------------------------------------|  |---- --------------------------|   X
|----------------------------------------------|  |-------------------------------|   X
|---14-14-13-13---------14-14-13-13------------|  |----14-14-13-13-13/14-14-14----|   X
|---------------14-14---------------14-14------|  |-------------------------------|   X
|----------------------------------------------|  |-------------------------------|   X
|----------------------------------------------|  |-------------------------------|   X
                                                      REPEAT 2X
|--------------------------------------------------|
|--------------------------------------------------|
|-14-14-13-13--14-14-14/16-16-16-14-14-13-13-14-14-|
|--------------------------------------------------|
|--------------------------------------------------|
|--------------------------------------------------|

VERSE 2 JUST LYK VERSE 1

Ang uhaw ko sa laro
Parang biglang na pawi
Wala na ring hapdi
Nakangiti na lagi
Pananabik sa bagong buhay
Bigla na lang naabot
Nung tumikim ako ng tunay
Nawala na ang "lugnot"... (i dont knw what "lugnot" means)

Back to Chorus:
After, ADLIB STyle and after the after thres a silent style after. ;P

acoustic:try to listn to it- at 2:52 (time duration).

never ending pattern...

|--0---0---0---0---0---|
|--0---0---0---0---0---|
|--6---9---4---7---2---|
|--6---9---4---7---2---|
|----------------------|
|----------------------|

Continue wth Distortion...

Repeat Chorus AGAIN and AGAIN

not xure with this tab.. just try 8....
actually im only using an acoustic guitar
its very hard for me to identfy the chords..bEwhuhu
i need E.guitar... Anyone???
If yourE eagr to email me-- and cnd me some negatve and painful comments.. fine :(
animedestiny_whilf@yahoo.com

-SzasZ-

            
            
Suggest correction
Creating personal tab
Creating personal tab
You can edit any tab online and save it as your Personal.

You can edit, replace or remove any tab part or add personal notes – all changes will be seen only by you.

Personal tabs can be accessed anytime from any device, even offline.
Learn more »
Give kudos to tab author, rate the tab!
1 2 3 4 5
comments
print report bad tab
1 comment total.
0 reply
royceyc 10 Apr 18, 2008 08:48 AM

I can't get it

guest
You may want to rate the tab now too:
select rating
Wanna post a correction for this tab? Suggest correction