Oops, an error
Loading. Please wait.

Q69K - Con Todo tab

203 views 1 this week
no commentswrite comment
1 2 3 4 5
3 more votes to show rating
add to favorites
×
Save as Personal and add changes to this tab that will be seen only by you. Learn more ›
×
You can save this tab as Personal to edit and correct it or add notes. All changes will be seen only by you. Learn more »
launch autoscroll
font size
0
reset
how to read this tab
guitar tuner
edit
Autoscroll
slow
fast
+/-
esc
set tempo
stop
http://myspace.com/grupoq69k

Despues de como una hora de estar peliando con myspace, al fin pude escuchar "Con Todo", 
me di cuenta de que es diferente de lo que yo recordaba jajaja
Mas o menos escucho esto parecido a la guitarra del intro y casi toda la cancion, pero 
algunas partes en que me confundo entonces quien sabe jajaja digan si la escuchan bien o 
:)

Tuning: eBGDAD (Drop D)

----------------------------------------------|
----------------------------------------------|
----------------------------------------------|
--xxx-77-xxx-66-xxx-22-xxx-00-----------------|
--xxx-44-xxx-44-xxx-44-xxx-44-----------------|
--xxx-44-xxx-44-xxx-44-xxx-44-----------------|

(Aqui entran las voces, bateria, bajo y creo que otra guitarra)

Abri tu corazooon, y entregate blah blah
---------------------------------------------|
---------------------------------------------|
---------------------------------------------|
--xxx-77-xxx-66-xxx-22-xxx-00000-------------|
--xxx-44-xxx-44-xxx-44-xxx-44444-------------|
--xxx-44-xxx-44-xxx-44-xxx-44444-------------|


--------------------------------------------|
--------------------------------------------|
--------------------------------------------|
--0000000000000000--2222222244446666--------|
--0000000000000000--2222222222222222--------|
--0000000000000000--2222222222222222--------|

y despues se repiten estos ultimos 8 compases por casi toda la cancion, creo..

escuchenla y digan si esta bien jaja
Suggest correction
Creating personal tab
Creating personal tab
You can edit any tab online and save it as your Personal.

You can edit, replace or remove any tab part or add personal notes – all changes will be seen only by you.

Personal tabs can be accessed anytime from any device, even offline.
Learn more »
Give kudos to tab author, rate the tab!
1 2 3 4 5
comments
print report bad tab
guest
You may want to rate the tab now too:
select rating
Wanna post a correction for this tab? Suggest correction