Oops, an error
Loading. Please wait.

Randon Ladner - Vita Music Tab

1 view 1 this week
no commentswrite comment
1 2 3 4 5
3 more votes to show rating
add to favorites
launch autoscroll
font size
0
reset
how to read this tab
guitar tuner
Autoscroll
slow
fast
+/-
esc
set tempo
stop
Help us to improve Ultimate-Guitar.com Take our survey!
×
Author
Difficulty
advanced
About this tab version
Original Song - I wrote this. Was this info helpful? Yes No
[Intro]

e|-12----12----12----12----12----12----12----12---------------------------------|
B|----15----13----------------------------------13------------------------------|
G|----------------16----14----13----14----16------------------------------------|     x5
D|------------------------------------------------------------------------------|
A|------------------------------------------------------------------------------|
E|------------------------------------------------------------------------------|

e|-12----12----12----12---------------------------------------------------------|
B|----15----13------------------------------------------------------------------|
G|----------------16----14----13-13-13/14---------------------------------------|     
D|------------------------------------------------------------------------------|
A|------------------------------------------------------------------------------|
E|------------------------------------------------------------------------------|


e|----------13h16p13----------------13-16\--------------------------------------|
B|-------15----------15----------15---------------------------------------------|
G|-13h16----------------16-13h16------------------------------------------------|
D|------------------------------------------------------------------------------|
A|------------------------------------------------------------------------------|
E|------------------------------------------------------------------------------|

e|-13p12p10---------------------------------------------------------------------|
B|----------13p12p10------------------------------------------------------------|
G|-------------------13p10p9----------------------------------------------------|
D|---------------------------12p10p9--------------------------------------------|
A|-----------------------------------12p11p8------------------------------------|
E|-------------------------------------------12p10p8-8\-------------------------|

e|------------------------------------------------------------------------------|
B|-------------------------6/9h10-----------------------------------------------|
G|-------------------5h7h9------------------------------------------------------|
D|-------------6h7h9------------------------------------------------------------|
A|-------5h7h8------------------------------------------------------------------|
E|-5h7h8------------------------------------------------------------------------|


[SQ 1]

e|-12p8-11p8-11p5-11p7-/12-12-12-12/15-15-15-15/17-17-24p17h24p17h24p17h24\------|
B|-------------------------------------------------------------------------------|
G|-------------------------------------------------------------------------------|
D|-------------------------------------------------------------------------------|
A|-------------------------------------------------------------------------------|
E|-------------------------------------------------------------------------------|

e|-5-7-8-4-5-7-8-12-5-7-8-4-5-7-10p8p7-------------------------------------------|
B|-------------------------------------10p9p6------------------------------------|
G|--------------------------------------------9p7p5----------------------7/9-----|
D|--------------------------------------------------7\-------------6p7p9---------|
A|-----------------------------------------------------------5p7p8---------------|
E|-----------------------------------------------------5p7p8---------------------|

e|-------------------------------------------------------------------------------|
B|-------------------------------------------------------------------------------|
G|-------------------------------------------------------------------------------|
D|-------------------------------------------------------------------------------|
A|-/8p7\5h7p5\3h5p3\2p0----------------------------------------------------------|
E|-------------------------------------------------------------------------------|

e|-13p12p10----------13p12p10--------------------------------------------------------------------------|
B|----------13p12p10----------13p12p10-----------------------------------------------------------------|
G|-------------------------------------13p10p9---------13p10p9-----------------------------------------|
D|---------------------------------------------12p10p9---------12p10p9---------------------------------|
A|---------------------------------------------------------------------12p11p8---------12p11p8---------|
E|-----------------------------------------------------------------------------12p10p8---------12p10p8-|

e|-------------------------------------------------------------------------------|
B|-------------------------------------------------------------------------------|
G|-------------------------------------------------------------------------------|
D|-------------6h9p6\3/10b-------------------------------------------------------|
A|-------5h7h8-------------------------------------------------------------------|
E|-5h7h8-------------------------------------------------------------------------|


[SQ 2]

e|------------8h12p8---------------8h12p8-------------7h10p7------------7h10p7---|
B|---------10--------10---------10--------10--------9--------9--------9--------9-|
G|-------9--------------------9-------------------7-----------------7------------|
D|----10-------------------10-------------------9-----------------9--------------|
A|-12-------------------12-------------------11----------------11----------------|
E|-------------------------------------------------------------------------------|

e|----------7h10p7------------7h10p7------------7h10p7------------7h10p7---------|
B|--------8--------8--------8--------8--------9--------9--------9--------9-------|
G|------7-----------------7-----------------7-----------------7------------------|
D|----9-----------------9-----------------9-----------------9--------------------|
A|-10----------------10----------------11----------------11----------------------|
E|-------------------------------------------------------------------------------|

e|------------8h12p8---------------8h12p8-------------7h10p7------------7h10p7---|
B|---------10--------10---------10--------10--------9--------9--------9--------9-|
G|-------9--------------------9-------------------7-----------------7------------|
D|----10-------------------10-------------------9-----------------9--------------|
A|-12-------------------12-------------------11----------------11----------------|
E|-------------------------------------------------------------------------------|

e|----------7h10p7------------7h10p7------------7h10p7---------------------------|
B|--------8--------8--------8--------8--------9--------9/10/22-------------------|
G|------7-----------------7-----------------7------------------------------------|
D|----9-----------------9-----------------9--------------------------------------|
A|-10----------------10----------------11----------------------------------------|
E|-------------------------------------------------------------------------------|


[SQ 3]

e|------------------------------------------------------------------8h10h12------|
B|--------------------------------------------------9h10h12-9h10h12--------------|
G|------------------------------------7h9h10-7h9h10------------------------------|
D|----------------------7h9h10-7h9h10--------------------------------------------|
A|--------7h8h11-7h8h11----------------------------------------------------------|
E|-7h8h10------------------------------------------------------------------------|

e|-12/13-12-10-10h12-12/13-13-13-13-13-13-13/16-16-16-16-16-16-------------------|
B|-------------------------------------------------------------------------------|
G|-------------------------------------------------------------------------------|
D|-------------------------------------------------------------------------------|
A|-------------------------------------------------------------------------------|
E|-------------------------------------------------------------------------------|

e|-5-7-8-4-1-0-1-5-7-8-4-12-13-16-17-16-17-19-17-16-17-24------------------------|
B|-------------------------------------------------------------------------------|
G|-------------------------------------------------------------------------------|
D|-------------------------------------------------------------------------------|
A|-------------------------------------------------------------------------------|
E|-------------------------------------------------------------------------------|

e|-17-20-19-20-17-20-19-20-13-17-16-17-13-17-16-17-16-19-17-19-16-19-17-19-------|
B|-------------------------------------------------------------------------------|
G|-------------------------------------------------------------------------------|
D|-------------------------------------------------------------------------------|
A|-------------------------------------------------------------------------------|
E|-------------------------------------------------------------------------------|

e|-12-16-13-16-12-16-13-16-13-17-16-17-13-17-16-17-10-13-12-13-10-13-12-13-------|
B|-------------------------------------------------------------------------------|
G|-------------------------------------------------------------------------------|
D|-------------------------------------------------------------------------------|
A|-------------------------------------------------------------------------------|
E|-------------------------------------------------------------------------------|

e|-12-16-13-16-12-16-13-16-8-12-10-12-8-12-10-12---------------------------------|
B|-------------------------------------------------------------------------------|
G|-------------------------------------------------------------------------------|
D|-------------------------------------------------------------------------------|
A|-------------------------------------------------------------------------------|
E|-------------------------------------------------------------------------------|

e|-12----12----12----12----12----12----12----12----------------------------------|
B|----15----13----------------------------------13-------------------------------|
G|----------------16----14----13----14----16-------------------------------------|     x4
D|-------------------------------------------------------------------------------|
A|-------------------------------------------------------------------------------|
E|-------------------------------------------------------------------------------|


[SQ 4]

e|-12----12----12----12----12----12----12----12----------------------------------|
B|----15----13----------------------------------13-------------------------------|
G|----------------16----14----13----14----16-------------------------------------|     x3
D|-------------------------------------------------------------------------------|
A|-------------------------------------------------------------------------------|
E|-------------------------------------------------------------------------------|

e|-12----12----12----12----------------------------------------------------------|
B|----15----13-------------------------------------------------------------------|
G|----------------16----14----13-13-13/14----------------------------------------|
D|-------------------------------------------------------------------------------|
A|-------------------------------------------------------------------------------|
E|-------------------------------------------------------------------------------|

e|----------13h16p13----------------13-16\---------------------------------------|
B|-------15----------15----------15----------------------------------------------|
G|-13h16----------------16-13h16-------------------------------------------------|
D|-------------------------------------------------------------------------------|
A|-------------------------------------------------------------------------------|
E|-------------------------------------------------------------------------------|

e|-20-19-17-16-19-17-16----16----------------------------------------------------|
B|----------------------18----18-17-15-18-17-15----15----------------------------|
G|----------------------------------------------17----17-16-14-17-16-14-13-------|
D|-------------------------------------------------------------------------------|
A|-------------------------------------------------------------------------------|
E|-------------------------------------------------------------------------------|

e|-------------------------------------------------------------------10h13p10---------------------|
B|----------------------------------------------------------------12----------12------------------|
G|-16-14-13----13-------------------------------------------10h13----------------13p10------------|
D|----------15----15-14-12-15-14-12----12----------------12----------------------------12---------|
A|----------------------------------15----15-14-12-11h14----------------------------------14-11~~~|
E|------------------------------------------------------------------------------------------------|

e|----------------------------------10h12h13-13/---------------------------------|
B|--------------------------9h10h12----------------------------------------------|
G|-------------------7h9h10------------------------------------------------------|
D|-------------6h7h9-------------------------------------------------------------|
A|-------5h7h8-------------------------------------------------------------------|
E|-4h5h7-------------------------------------------------------------------------|

e|-0-----------------------------------------------------------------------------|
B|-1-----------------------------------------------------------------------------|
G|-2-----------------------------------------------------------------------------|
D|-2-----------------------------------------------------------------------------|
A|-0-----------------------------------------------------------------------------|
E|-------------------------------------------------------------------------------|


****************



************************************

| /  Slide up
| h  Hammer-on
| p  Pull-off
| \  Slide down
| b  Bend
| ~  Vibrato

************************************
Suggest correction
Give kudos to tab author, rate the tab!
1 2 3 4 5
comments
print report bad tab
guest
You may want to rate the tab now too:
select rating
Wanna post a correction for this tab? Suggest correction