Oops, an error
Loading. Please wait.

Red Light Knights - Rodeo Clown tab

version 1
version 1

Whole song

146 views 1 this week
no commentswrite comment
1 2 3 4 5
3 more votes to show rating
add to favorites
×
Save as Personal and add changes to this tab that will be seen only by you. Learn more ›
×
You can save this tab as Personal to edit and correct it or add notes. All changes will be seen only by you. Learn more »
launch autoscroll
font size
0
reset
how to read this tab
guitar tuner
edit
Autoscroll
slow
fast
+/-
esc
set tempo
stop
-------------------------------------------------------------------------------
                             RODEO CLOWN - Red Light Knights
-------------------------------------------------------------------------------
Tabbed by: Gerard Cordwell
Email:

Tuning: Standard Tuning - EADGBe

Standard Tuning - EADGBe

New unsigned artist.

Intro Riff:
(Part 1)

e|------------------------------------------|
B|------------------------------------------|
G|------------------------------------------|
D|--12--/--14--\--12--\--9------------------|    repeat 3x
A|--10--/--12--\--10--\--7------------------|
E|------------------------------------------|

(Part 2)
On fourth time round, do this:
e|------------------------------------------|
B|------------------------------------------|
G|------------------------------------------|
D|--12--/--14--\--12--/--14-----------------|
A|--10--/--12--\--10--/--12-----------------|
E|------------------------------------------|

Verse 1 - Nothing played.

Chorus - Play the whole intro riff once

Verse 2 - Nothing played.

Chorus - Again, repeat whole intro riff once

SOLO:

e|---15----15-12-10--12-10-------------------------------|
B|-------------------------------------------------------|
G|---------------------------16----16-14-12-14-16--------|
D|-------------------------------------------------------|
A|-------------------------------------------------------|
E|-------------------------------------------------------|

(Then this);

e|---15----15-12-10--12-10-12—15--15--15-15-12-----------|
B|-------------------------------------------------------|
G|-------------------------------------------------------|
D|-------------------------------------------------------|
A|-------------------------------------------------------|
E|-------------------------------------------------------|

e|--------------------------------------------------------------------|
B|--------------------------------------------------------------------|
G|--------------12---12-----------------------------------------------|
D|--------12-14-----------14---------------12---------------12--------|
A|--12-14-----------------------12-h13-h14-------12-h13-h14-----------|
E|--------------------------------------------------------------------|

Now play this (like intro):
e|--------------------------------------------------------------------|
B|--------------------------------------------------------------------|
G|--------------------------------------------------------------------|
D|--12--/--14--\--12--\--9-------12--/--14--\--12-12---12-12----------|
A|--10--/--12--\--10--\--7-------10--/--12--\--10-10---10-10----------|
E|--------------------------------------------------------------------|

The lead part over this bit is:

e|---------------------------12----------------12-12------------------|
B|--------------------------------------------------------------------|
G|--------------------------------------------------------------------|
D|--------------------------------------------------------------------|
A|--------------------------------------------------------------------|
E|--------------------------------------------------------------------|

Continued solo:

e|--10----12-10-12-10-12-15---15--15-12-----17-15-12--17-15-12--------|
B|--------------------------------------------------------------------|
G|--------------------------------------------------------------------|
D|--------------------------------------------------------------------|
A|--------------------------------------------------------------------|
E|--------------------------------------------------------------------|

e|--17--17---17--17--17---17--12--------------------------------------|
B|--------------------------------------------------------------------|
G|--------------------------------------------------------------------|
D|--------------------------------------------------------------------|
A|--------------------------------------------------------------------|
E|--------------------------------------------------------------------|

OUTRO:

Play this again:
e|--------------------------------------------------------------------|
B|--------------------------------------------------------------------|
G|--------------------------------------------------------------------|
D|--12--/--14--\--12--\--9-------12--/--14--\--12-12---12-12----------|
A|--10--/--12--\--10--\--7-------10--/--12--\--10-10---10-10----------|
E|--------------------------------------------------------------------|

The lead part over this bit is:

e|---------------------------12-----12--------------------------------|
B|--------------------------------------------------------------------|
G|--------------------------------------------------------------------|
D|--------------------------------------------------------------------|
A|--------------------------------------------------------------------|
E|--------------------------------------------------------------------|

The Red Light Knights are a great unsigned, unheard of band. They are brothers and
cousins to the greatest band ever, Kings Of Leon and come from Oklahoma, USA. This
is a pretty simple song really and it completely f*ckin' rocks! Listen to the song
and have fun!

P.S. I strongly, so very strongly advise you to listen to the kings of Leon, for
obvious reasons. If not so obvious, I mean they rule man! Also, I recommend you
shower every 2 days. I should stop typing now shouldn't I? 

| /  slide up
| \  slide down
| h  hammer-on
| p  pull-off
| ~  vibrato
| +  harmonic
| x  Mute note
===============================================================================

            
            
Suggest correction
Creating personal tab
Creating personal tab
You can edit any tab online and save it as your Personal.

You can edit, replace or remove any tab part or add personal notes – all changes will be seen only by you.

Personal tabs can be accessed anytime from any device, even offline.
Learn more »
Give kudos to tab author, rate the tab!
1 2 3 4 5
comments
print report bad tab
guest
Wanna post a correction for this tab? Suggest correction