Oops, an error
Loading. Please wait.

Red Zone - Beatmania Tab

version 1
version 1

Whole song

Interactive

1,232 views 1 this week
no commentswrite comment
1 2 3 4 5
please rate
add to favorites
launch autoscroll
font size
0
reset
how to read this tab
guitar tuner
Tab Pro tools
  • play this tab
  • loop segment
  • change instrument
  • show fretboard
  • metronome
×
Best way to learn
"Red Zone - Beatmania"
Autoscroll
slow
fast
+/-
esc
set tempo
stop
Contributor
Difficulty
advanced
                               Red Zone - Beatmania IIDX 11

Gtr I ► (E A D G B E) 

  Q=160
 4/4
  Gtr I
  T      T      T      T      T    T
  S S S  S S S  S S S  S S S  S S  S S
|--------------------------------------|
|--------------------------------------|
|-9-0h4-11-0h4-12-0h4-14-0h4-16-4-16-4-|
|--------------------------------------|
|--------------------------------------|
|--------------------------------------|


   S S  S  S  S  S  S  S  S  S  S  S Q
|----------------------------------------|
|----------------------------------------|
|-12-9-11-12-14-11-12-14-16-12-14-16-----|
|----------------------------------------|
|----------------------------------------|
|----------------------------------------|


  S S S  S S S  S S S  S S S  S S  S S
|---------------------------------------|
|---------------------------------------|
|-9-0-4-11-0-4-12-0-4-14-0-4-16-4-16-4--|
|---------------------------------------|
|---------------------------------------|
|---------------------------------------|


                               |-3-|
   S  S  S  S  S  S  S  S  E E E E E
|----------15-12----12------------------|
|-15-12----------15----15--x-x-x-x-x----|
|-------14-----------------x-x-x-x-x----|
|--------------------------x-x-x-x-x----|
|---------------------------------------|
|---------------------------------------|


  S S S  S S S  S S S  S S S  S S  S S
|--------------------------------------|
|--------------------------------------|
|-9-0-4-11-0-4-12-0-4-14-0-4-16-4-16-4-|
|--------------------------------------|
|--------------------------------------|
|--------------------------------------|


   S S  S  S  S  S  S  S  S  S  S  S  S  S  S  S
|--------------------------------------------------|
|------------------------------------15-12-15-17---|
|-12-9-11-12-14-11-12-14-16-12-14-16---------------|
|--------------------------------------------------|
|--------------------------------------------------|
|--------------------------------------------------|


  S S S  S S S  S S S  S S S  S  S  S  S
|----------------------------------------|
|----------------------------------------|
|-9-0-4-11-0-4-12-0-4-14-0-4-14-12-14-16-|
|----------------------------------------|
|----------------------------------------|
|----------------------------------------|


  S  S E  E  S   S  +Q   S  S  S  S
|-----------------------15-14-17-22----||
|---15---15-12--17-(17)----------------||
|--------------------------------------||
|--------------------------------------||
|--------------------------------------||
|--------------------------------------||


  E E E E E E E E   E E E E E E E E
|-----------------|-----------------|
|-----------------|-----------------|
|-----------------|---4---4---6---6-|
|---2---2---2---2-|---5---5---7---7-|
|---2---2---2---2-|---5---5---7---7-|
|---0---0---0---0-|---3---3---5---5-|


  S S S  S S S  S S S  S S S  S S  S S
|--------------------------------------|
|--------------------------------------|
|-9-0-4-11-0-4-12-0-4-14-0-4-16-4-16-4-|
|--------------------------------------|
|--------------------------------------|
|--------------------------------------|


   S S  S  S  S  S  S  S  S  S  S  S  S  S  S  S
|--------------------------------------------------|
|------------------------------------15-12-15-17---|
|-12-9-11-12-14-11-12-14-16-12-14-16---------------|
|--------------------------------------------------|
|--------------------------------------------------|
|--------------------------------------------------|


  E E E E E E E E   E E E E E E E E
|-----------------|-----------------|
|-----------------|-----------------|
|-----------------|---4---4---6---6-|
|---2---2---2---2-|---5---5---7---7-|
|---2---2---2---2-|---5---5---7---7-|
|---0---0---0---0-|---3---3---5---5-|


  S S S  S S S  S S S  S S S  Q            H       H
|-----------------------------------|--------------------||
|-----------------------------------|--------------------||
|-9-0-4-11-0-4-12-0-4-14-0-4-16-----|--------------------||
|-----------------------------------|--------------------||
|-----------------------------------|--------------x-----||
|-----------------------------------|--------------x\----||


    $
     E  s  s  E  s  s    E  S  E  S  S  S
||-----------------------------------------|
||o----------------------------------------|
||--12-------12---------14----16----12-----|
||-----14-14----14-14------14----14----14--|
||o----------------------------------------|
||-----------------------------------------|


   E  s  s  E  s  s  E  s  E   S  S  S
|-----------------------------------------|
|-----------------------------------------|
|-11-------11-------14----16-----12-------|
|----12-12----12-12----12-----14----14----|
|-----------------------------------------|
|-----------------------------------------|


   E  s  s  E  s  s  E  s  E  S  S  S    S  S  S  S  E  E  S  S  E.  S  S  S
|-------------------------------------|---------------------------------------||
|-------------------------------------|--------------------------------------o||
|-12-------12-------14----16----12----|-14----11----14-11-14----16-----12-----||
|----14-14----14-14----14----14----14-|----12----12----------12-----14----14--||
|-------------------------------------|--------------------------------------o||
|-------------------------------------|---------------------------------------||


     E  E  E  S  E  E  S  E  E    E  E S  E S  E S  E.  +E
||--12-14-15-12-14-15-12-14-15--|-0-17-0-14-0-17-0-19--(19)----|
||o-12-12-12-12-12-12-12-12-12--|------------------------------|
||------------------------------|------------------------------|
||------------------------------|------------------------------|
||o-----------------------------|------------------------------|
||------------------------------|------------------------------|


   E  E  E  S  E  E  S  E  E
|-12-14-15-12-14-15-12-19-15---|
|-12-12-12-12-12-12-12---------|
|------------------------------|
|------------------------------|
|------------------------------|
|------------------------------|


                                             To Coda
   S  S  S  S  S  S  S  S  S  S  S  S  S  E.
|----17-22----17-22----17-22----17-22-19-17-----------|
|-19-------19-------19-------19-----------------------|
|-----------------------------------------------------|
|-----------------------------------------------------|
|-----------------------------------------------------|
|-----------------------------------------------------|


   E  E  E  S  E  E  S  E  E       S  S S  E  S  E S  E S  E S  S
|-12-14-15-12-14-15-12-14-15---|--15-14-0-12--0-10-0-12-0-14-0-15----|
|-12-12-12-12-12-12-12-12-12---|-------------------------------------|
|------------------------------|-------------------------------------|
|------------------------------|-------------------------------------|
|------------------------------|-------------------------------------|
|------------------------------|-------------------------------------|


    ~~~~
   +W               +H         E.   E.   E
|-(15)-----------|-(15)-------19---17---15----||
|----------------|----------------------------||
|----------------|----------------------------||
|----------------|----------------------------||
|----------------|----------------------------||
|----------------|----------------------------||


  Wx2
|--------|
|--------|
|--------|
|--------|
|--------|
|--------|


   E S S  E S S  E  E E  E   E  E  E E  E E  E E
|-12-x-x-12-x-x-12-12-x-12-|-x-12-12-x-12-x-12-x-|
|-12-x-x-12-x-x-12-12-x-12-|-x-12-12-x-12-x-12-x-|
|--------------------------|---------------------|
|--------------------------|---------------------|
|--------------------------|---------------------|
|--------------------------|---------------------|


   Q      H        E  E    E     Q.    S  S  E  Q
|-----------------------|---------------------------|
|-18-----18-------------|-17b18-17------------------|
|-17b19--17b19----17-15-|-17b18-17----15S19S15------|
|-----------------------|----------------------17---|
|-----------------------|---------------------------|
|-----------------------|---------------------------|


                                                   D.S.
  E  S  S  Q  E  S  S  E  S     S    E     Q   H       E
|---------------------------------|----------------------|
|------------------------18b20-18-|-18b22-18--18b20------|
|---------------------15----------|----------------------|
|---------15----15-17-------------|----------------------|
|---15-17-------------------------|----------------------|
|---------------------------------|----------------------|


  &
   E  E  E  S  E  E  S  E  E    S  S S  E S  E S  E S  E S  S
|-12-14-15-12-14-15-12-14-15-|-15-14-0-12-0-14-0-15-0-17-0-17b19-|
|-12-12-12-12-12-12-12-12-12-|-----------------------------------|
|----------------------------|-----------------------------------|
|----------------------------|-----------------------------------|
|----------------------------|-----------------------------------|
|----------------------------|-----------------------------------|


   +W                            W          W
|-(17)b19-------|-----------------------|------||
|---------------|-----------------------|------||
|---------------|-----------------------|------||
|---------------|-----------------------|------||
|---------------|-----------------------|------||
|---------------|-----------------------|------||


   T  T  T  T  T  T  T  T  T  T  T  T  E  T  T  T  T  T  T  T  T  T  T  T  T  E
|----------------11-15-16-15-11----------------------13-16-18-16-13-------------|
|-------------13----------------13----------------13----------------13----------|
|----------13----------------------13----------15----------------------15-------|
|-------13----------------------------13-13-15----------------------------17-15-|
|-11-15-------------------------------------------------------------------------|
|-------------------------------------------------------------------------------|


                 ~~
   Q     +E   E  H
|---------------------|
|-16----(16)-16-16----|
|-15b17-(15)-15-15----|
|---------------------|
|---------------------|
|---------------------|


   |--3--|  |--3--|  |--3--|  |--3--|  |--3--|  |--3--|  |--3--|  |--3--|
   S  S  S  S  S  S  S  S  S  S  S  S  S  S  S  S  S  S  S  S  S  S  S  S
|-13-15-16-15-13----------------------------------------------------------|
|----------------16-14-13-14-16-14-13-------------------------------------|
|-------------------------------------15-13-12-10----------------10-------|
|-------------------------------------------------13-12-10-12-13----13-12-|
|-------------------------------------------------------------------------|
|-------------------------------------------------------------------------|


   S  S  S  S  e  e     H
|---------------------------|
|---------------------------|
|-13-12----------15b17-13---|
|-------13-11-13------------|
|---------------------------|
|---------------------------|


   S S  S S  S S  S S  S S  S S  S S  S S
|-13p8h13p8h15p8h16p8h13p8h13p8h15p8h16p8h|
|-----------------------------------------|
|-----------------------------------------|
|-----------------------------------------|
|-----------------------------------------|
|-----------------------------------------|


   S S  S S  S S  S  S  S S  S S  S  S  S  S
|-11p8h11p8h15p8h16h18p16p8h16p8h18h20p18p16--|
|---------------------------------------------|
|---------------------------------------------|
|---------------------------------------------|
|---------------------------------------------|
|---------------------------------------------|


   S  S  S  S  S  S  S  S  S  S  S  S  S  S  S  S
|-13----------13----------13----------------------|
|----13----13----13----13----13----------------13-|
|-------13----------13----------13----------13----|
|----------------------------------15----15-------|
|-------------------------------------15----------|
|-------------------------------------------------|


   S  S  S  S  S  S  S  S  S  S  S  S  S  S  S  S
|-11----------11----------11----------18-16-15-----|
|----11----11----11----11----11----11----------16--|
|-------12----------12----------12-----------------|
|--------------------------------------------------|
|--------------------------------------------------|
|--------------------------------------------------|


  E.  E. E.  E. E  E    E.  E.  E.  E.  E  E    W
|--------------------|-----------------------|-------|
|--------------------|--8---9---8---9---8--9-|--9----|
|--------------------|-10--10--10--10--10-10-|-10----|
|-8--10--8--10--8-10-|-10--10--10--10---8-10-|-10----|
|-6---8--6---8--6--8-|--8---8---8---8---8--8-|--8----|
|--------------------|-----------------------|--8----|


Duration Legend
---------------
W - whole; H - half; Q - quarter; E - 8th; S - 16th; T - 32nd; X - 64th; a - acciaccatura
+ - note tied to previous; . - note dotted; .. - note double dotted
Uncapitalized letters represent notes that are staccato (1/2 duration)
Irregular groupings are notated above the duration line
Duration letters will always appear directly above the note/fret number it represents the
duration for.  Duration letters with no fret number below them represent rests.  Multi-
bar rests are notated in the form Wxn, where n is the number of bars to rest for.  Low
melody durations appear below the staff

Tablature Legend
----------------
 h   - hammer-on
 p   - pull-off
 b   - bend
 pb  - pre-bend
 r   - bend release (if no number after the r, then release immediately)
 /\  - slide into or out of (from/to "nowhere")
 s   - legato slide
 S   - shift slide
 - natural harmonic
[n]  - artificial harmonic
n(n) - tapped harmonic
 ~   - vibrato
 tr  - trill
 T   - tap
 TP  - trem. picking
 PM  - palm muting
\n/  - tremolo bar dip; n = amount to dip
 \n  - tremolo bar down
 n/  - tremolo bar up
/n\  - tremolo bar inverted dip
 =   - hold bend; also acts as connecting device for hammers/pulls
 <> - volume swell (louder/softer)
 x   - on rhythm slash represents muted slash
 o   - on rhythm slash represents single note slash
comments
We did not receive enough feedback on this tab! Please rate:
print report bad tab
1 2 3 4 5
I want to post or [tab]
guest
You may want to rate the tab now too:
select rating
Please do not post tabs as comments. Select "correction" instead!