Oops, an error
Loading. Please wait.

Regret Comes Last - Kisses Sweeter Than Wine Tab

1,032 views 1 this week
no commentswrite comment
1 2 3 4 5
please rate
add to favorites
launch autoscroll
font size
0
reset
how to read this tab
guitar tuner
Tab Pro tools
  • play this tab
  • loop segment
  • change instrument
  • show fretboard
  • metronome
×
Best way to learn
"Regret Comes Last - Kisses Sweeter Than Wine"
Autoscroll
slow
fast
+/-
esc
set tempo
stop
Contributor
Difficulty
advanced
Kisses Sweeter than Wine
By:Regret Comes Last
Album:The First Blast of the Drumset Against the Monstrous Regiment of Women

Cool song.. 
i tuned my guitar on D#..
It sounds fine..

Intro:
 Guitar1:
 |--------------------------------------------------|
 |-------------------------5--5---------------------|
 |-754754-6p4h6p4h6p4h6p4p0-45-45-0h4p0h4p0h4p0h4p0-|
 |--------------------------------------------------| x4
 |--------------------------------------------------|
 |--------------------------------------------------|

 Guitar2:
 |-----------------------------|
 |-----------------------------|
 |-666666----------------------|
 |-666666-555555-333333-666666-| x4
 |-444444-555555-333333-666666-|
 |--------333333-111111-444444-|
   ...... ...... ...... ......

Verse:[vanity and self-centerness...]
 Guitar1:
 |-------------------------------------------------------------------
 |-------------------------------------------------------2h4---------
 |--------2h4h5h7p5p4p2p0-------2h4h5h7p5p4p2p0-------3h4---2-3-5-2--
 |-44-4-4/---------------44-4-4/---------------66-6-6/---------------
 |-44-4-4/---------------44-4-4/---------------66-6-6/---------------
 |-22-2-2/---------------22-2-2/---------------44-4-4/---------------

continued...
 ----------------------|
 -----------3h5--------|
 --------3h5---3-4-6-4-|
 -66-6-6/--------------| x2
 -66-6-6/--------------|
 -44-4-4/--------------|

 Guitar2:
 |------------------------------------------------------------------------|
 |------------------------------------------------------------------------|
 |------------------------------------------------7/8-----------7/8-------|
 |-4444-----------------4444-----------------6666-5/6-457--6666-5/6--457--|x2
 |-4444-1-3-4-6-5-4-2-0-4444-1-3-4-5-6-4-2-0-6666--------0-6666---------0-|
 |-2222-----------------2222-----------------4444----------4444-----------|

Pre-chorus:[animosity ruptures thes veins...]
 Guitar2:
 |-------------------------------------------|
 |-------------------------------------------|
 |-555555-7777/8888/99/1111/1212\8888-666666-|
 |-555555-7777/8888/99/1111/1212\8888-666666-| x2
 |-333333-5555/6666/77/9-9-/8-8-\6666-444444-|
 |-------------------------------------------|
   ...... .... .... .. . .  . .  .... ......

 Guitar1:(those are 10s, not 1& 0s..)
 |---------------------------------------------------------------------|
 |-t14p9-108710871087-t12p9-108710871087-11p9p8-8-7-8-7-11p9p8-8-7-8-7-|
 |-------------------------------------------------8---8----------8----|
 |---------------------------------------------------------------------| x2
 |---------------------------------------------------------------------|
 |---------------------------------------------------------------------|

Chorus:[lips lucent with empathy..] 
 |----------------------------------------------------------|
 |----------------------------------------------------------|
 |-88888888-1212121212121212--------------------------------|
 |-88888888-1212121212121212-141414141414-1111111111111111--|
 |-66666666-1010101010101010-141414141414-1111111111111111--|
 |---------------------------121212121212-9-9-9-9-9-9-9-9---|

then:
 |---------------------------------|
 |---------------------------------|
 |-6h8-9-8-6-8-9h10-6h8-9-8-6-9h10-|
 |---------------------------------|
 |---------------------------------|
 |---------------------------------|

repeat chorus twice...

Post chorus riff:
 |---------------------------------|
 |---------------------------------|
 |---------------------------------|
 |-8-6-5-8-6-5-0-4-0-3-0-6-8p7-5-0-|
 |---------------------------------|
 |---------------------------------|

Verse:[insipid and awkward ensembles...]
 Guitar1:
 |-------------------------------------------------------------------
 |-------------------------------------------------------2h4---------
 |--------2h4h5h7p5p4p2p0-------2h4h5h7p5p4p2p0-------3h4---2-3-5-2--
 |-44-4-4/---------------44-4-4/---------------66-6-6/---------------
 |-44-4-4/---------------44-4-4/---------------66-6-6/---------------
 |-22-2-2/---------------22-2-2/---------------44-4-4/---------------

continued...
 ----------------------|
 -----------3h5--------|
 --------3h5---3-4-6-4-|
 -66-6-6/--------------| x2
 -66-6-6/--------------|
 -44-4-4/--------------|

 Guitar2:
 |------------------------------------------------------------------------|
 |------------------------------------------------------------------------|
 |------------------------------------------------7/8-----------7/8-------|
 |-4444-----------------4444-----------------6666-5/6-457--6666-5/6--457--|x2
 |-4444-1-3-4-6-5-4-2-0-4444-1-3-4-5-6-4-2-0-6666--------0-6666---------0-|
 |-2222-----------------2222-----------------4444----------4444-----------|

Pre-chorus:[animosity ruptures thes veins...]
 Guitar2:
 |-------------------------------------------|
 |-------------------------------------------|
 |-555555-7777/8888/99/1111/1212\8888-666666-|
 |-555555-7777/8888/99/1111/1212\8888-666666-| x2
 |-333333-5555/6666/77/9-9-/8-8-\6666-444444-|
 |-------------------------------------------|
   ...... .... .... .. . .  . .  .... ......

 Guitar1:(those are 10s, not 1& 0s..)
 |---------------------------------------------------------------------|
 |-t14p9-108710871087-t12p9-108710871087-11p9p8-8-7-8-7-11p9p8-8-7-8-7-|
 |-------------------------------------------------8---8----------8----|
 |---------------------------------------------------------------------| x2
 |---------------------------------------------------------------------|
 |---------------------------------------------------------------------|

Chorus:[lips lucent with empathy..] 
 |----------------------------------------------------------|
 |----------------------------------------------------------|
 |-88888888-1212121212121212--------------------------------|
 |-88888888-1212121212121212-141414141414-1111111111111111--|
 |-66666666-1010101010101010-141414141414-1111111111111111--|
 |---------------------------121212121212-9-9-9-9-9-9-9-9---|

then:
 |---------------------------------|
 |---------------------------------|
 |-6h8-9-8-6-8-9h10-6h8-9-8-6-9h10-|
 |---------------------------------|
 |---------------------------------|
 |---------------------------------|

repeat chorus twice...

Post chorus riff:
 |---------------------------------|
 |---------------------------------|
 |---------------------------------|
 |-8-6-5-8-6-5-0-4-0-3-0-6-8p7-5-0-|
 |---------------------------------|
 |---------------------------------|

Bridge:[phantasmic anxiety grips...]
 Guitar1:
 |---------------------------------------------------------------------
 |-7p0-9p0-6p0--------8p0--7p0-9p0-6p0--------8p0-7p0-9p0-6p0----------
 |------------9p0-11p0----------------9p0-11p0---------------9p0-11p0--
 |---------------------------------------------------------------------
 |---------------------------------------------------------------------
 |---------------------------------------------------------------------

continued...
 ------------------------------|
 -8p0--7p0-9p0-6p0--------8p0--|
 -----------------9p0-11p0-----|
 ------------------------------|
 ------------------------------|
 ------------------------------|

 Guitar2:
 |-------------------------|
 |-------------------------|
 |-12~----8~---------------|
 |-12~----8~----11~----14~-| x2
 |-10~----6~----11~----14~-|
 |--------------9-~----12~-|

Chorus:[lips lucent with empathy..] 
 |----------------------------------------------------------|
 |----------------------------------------------------------|
 |-88888888-1212121212121212--------------------------------|
 |-88888888-1212121212121212-141414141414-1111111111111111--|
 |-66666666-1010101010101010-141414141414-1111111111111111--|
 |---------------------------121212121212-9-9-9-9-9-9-9-9---|

then:
 |---------------------------------|
 |---------------------------------|
 |-6h8-9-8-6-8-9h10-6h8-9-8-6-9h10-|
 |---------------------------------|
 |---------------------------------|
 |---------------------------------|

and then:
 |----------------------------------|
 |----------------------------------|
 |-6h8-9-8-6-8-9h10-6h8-9-8-6-9h10~-|
 |----------------------------------|
 |----------------------------------|
 |----------------------------------|



comments
We did not receive enough feedback on this tab! Please rate:
print report bad tab
1 2 3 4 5
I want to post or [tab]
guest
You may want to rate the tab now too:
select rating
Please do not post tabs as comments. Select "correction" instead!