Oops, an error
Loading. Please wait.

Regret Comes Last - Romeo Vs Juliet Round 1 Tab

449 views 1 this week
no commentswrite comment
1 2 3 4 5
2 more votes to show rating
add to favorites
launch autoscroll
font size
0
reset
how to read this tab
guitar tuner
Autoscroll
slow
fast
+/-
esc
set tempo
stop
Help us to improve Ultimate-Guitar.com Take our survey!
×
Author
Difficulty
Tuning
advanced
D A D G B E
Romeo Vs Juliet, Round 1
By:Regret Comes Last
Album:The First Blast of the Drumset Against the Monstrous Regiment of Women

The song is coo0o0oL...
Drop D and play... I know it's correct...

Intro:
 |-------------------------------------------------12p10p9-12p10p9-----10~-|
 |-t16p8h9p7h9p0-t16p8h9p7h9p0-----------8p0-9p0------------------10p9-----|
 |----------------------------8p0-7p0-5p0-------6p0-------------------9----|
 |-------------------------------------------------------------------------|
 |-------------------------------------------------------------------------|
 |-------------------------------------------------------------------------|

continued...
 |-------------------------------------------------------------------------|
 |-----------------------------------8~------------------------------------|
 |-11-9-8-11-9-8-9-8-9-8-----6---6-----11-9-8-11-9-8-9-8-9-8-----6---6---6-|
 |------------------9---9-9-8-9-8-9-8-------------------9---9-9-8-9-8-9-8--|
 |-------------------------------------------------------------------------|
 |-------------------------------------------------------------------------|

continued...
 -----------|
 -----8~----|
 -----------|
 -8-9-------|
 -----------|
 -----------|

verse:[caught in a holocaust...]
 guitar2:
 |------------------------------|
 |------------------------------|
 |--------777777-5555555-888888-|
 |-444444-777777-xxxxxxx-888888-| x2
 |-222222-555555-3333333-666666-|
 |-222222-----------------------|

 guitar1:
 |------------------------------------------------------|
 |--9--9-8---9--8-0----0-7-9--9--9-8---9--8-0----0-7-9--|
 |---10---10--10---9-11-----7--10---10--10---9-11-----7-|
 |----------9-------8-----------------9-------8---------| x2
 |-8-------------------------8--------------------------|
 |------------------------------------------------------|

Pre-Chorus:[failure to satisfy...]
 guitar2:
 |-------------------------------------|
 |-------------------------------------|
 |-------------------------------------|
 |-00000000-22222222-44444444-33333333-| x2
 |-00000000-22222222-44444444-33333333-|
 |-00000000-22222222-44444444-33333333-|

 guitar1:
 |-------------------------------------------------------------|
 |-----8----8-----------------------------------------------8~-|
 |--8-5--8-5-7h9------11-9-8-11-9-8-9-8-9-8-----6---6---6------|
 |-5----5-------7h9--------------------9---9-9-8-9-8-9-8-8-9---| x2
 |-----------------9p8-----------------------------------------|
 |-------------------------------------------------------------|

Intro:
 |-------------------------------------------------12p10p9-12p10p9-----10~-|
 |-t16p8h9p7h9p0-t16p8h9p7h9p0-----------8p0-9p0------------------10p9-----|
 |----------------------------8p0-7p0-5p0-------6p0-------------------9----|
 |-------------------------------------------------------------------------|
 |-------------------------------------------------------------------------|
 |-------------------------------------------------------------------------|

continued...
 |-------------------------------------------------------------------------|
 |-----------------------------------8~------------------------------------|
 |-11-9-8-11-9-8-9-8-9-8-----6---6-----11-9-8-11-9-8-9-8-9-8-----6---6---6-|
 |------------------9---9-9-8-9-8-9-8-------------------9---9-9-8-9-8-9-8--|
 |-------------------------------------------------------------------------|
 |-------------------------------------------------------------------------|

continued...
 -----------|
 -----8~----|
 -----------|
 -8-9-------|
 -----------|
 -----------|

verse:[gorgeous fantasies overwhelming...]
 guitar2:
 |------------------------------|
 |------------------------------|
 |--------777777-5555555-888888-|
 |-444444-777777-xxxxxxx-888888-| x2
 |-222222-555555-3333333-666666-|
 |-222222-----------------------|

 guitar1:
 |------------------------------------------------------|
 |--9--9-8---9--8-0----0-7-9--9--9-8---9--8-0----0-7-9--|
 |---10---10--10---9-11-----7--10---10--10---9-11-----7-|
 |----------9-------8-----------------9-------8---------| x2
 |-8-------------------------8--------------------------|
 |------------------------------------------------------|

Pre-Chorus:[failure to satisfy...]
 guitar2:
 |-------------------------------------|
 |-------------------------------------|
 |-------------------------------------|
 |-00000000-22222222-44444444-33333333-| x2
 |-00000000-22222222-44444444-33333333-|
 |-00000000-22222222-44444444-33333333-|

 guitar1:
 |-------------------------------------------------------------|
 |-----8----8-----------------------------------------------8~-|
 |--8-5--8-5-7h9------11-9-8-11-9-8-9-8-9-8-----6---6---6------|
 |-5----5-------7h9--------------------9---9-9-8-9-8-9-8-8-9---| x2
 |-----------------9p8-----------------------------------------|
 |-------------------------------------------------------------|

Intro:
 |-------------------------------------------------12p10p9-12p10p9-----10~-|
 |-t16p8h9p7h9p0-t16p8h9p7h9p0-----------8p0-9p0------------------10p9-----|
 |----------------------------8p0-7p0-5p0-------6p0-------------------9----|
 |-------------------------------------------------------------------------|
 |-------------------------------------------------------------------------|
 |-------------------------------------------------------------------------|

continued...
 |-------------------------------------------------------------------------|
 |-----------------------------------8~------------------------------------|
 |-11-9-8-11-9-8-9-8-9-8-----6---6-----11-9-8-11-9-8-9-8-9-8-----6---6---6-|
 |------------------9---9-9-8-9-8-9-8-------------------9---9-9-8-9-8-9-8--|
 |-------------------------------------------------------------------------|
 |-------------------------------------------------------------------------|

continued...
 -----------|
 -----8~----|    repeat
 -----------|    intro
 -8-9-------|    twice...
 -----------|
 -----------|

Outro:
 |-------------------------------------------------------------|
 |-------------------------------------------------------------|
 |------------------------13-----13-11-9-8-11-9-8---9~/8~------|
 |-15-16-17-15-16-17-14-15--14-15----------------12~-----[10]~-|
 |-------------------------------------------------------------|
 |-------------------------------------------------------------|

I am sure it's correct... 100%..
hahah..

im still looking for RCL's website...

Hahaha...
Suggest correction
Give kudos to tab author, rate the tab!
1 2 3 4 5
comments
print report bad tab
guest
You may want to rate the tab now too:
select rating
Wanna post a correction for this tab? Suggest correction