Oops, an error
Loading. Please wait.

Rejected False Icons - Random Madness Bass Tab

68 views 1 this week
no commentswrite comment
1 2 3 4 5
3 more votes to show rating
add to favorites
launch autoscroll
font size
0
reset
guitar tuner
Autoscroll
slow
fast
+/-
esc
set tempo
stop
Help us to improve Ultimate-Guitar.com Take our survey!
×
Difficulty
Tuning
novice
E A D G B E
look this is the intro to the song we palyed at the talent show its a really easy song
you should all be able to play it. have fun its pretty sweet. oh and you hit the top
12th fret twice then just put your fingure down on the fretboad so it sounds like your 
3 notes when your hitting 2.. okay so good luck this is fun ill put the rest of the
up later too lazy to do it right now

----------------------------------------|
----------------------------------------|
----------------------------------------|
12-12-0-11-11-0-10-10-0-9-9-0-8-8-0-----|

----------------------------------------|
----------------------------------------|
----------------------------------------|
12-12-0-11-11-0-10-10-0-9-9-0-8-8-0-----|

----------------------------------------|
----------------------------------------|
----------------------------------------|
12-12-0-11-11-0-10-10-0-9-9-0-8-8-0-----|

----------------------------------------|
----------------------------------------|
----------------------------------------|
12-12-0-11-11-0-10-10-0-9-9-0-8-8-0-----|

once you do that 2 times the guitar comes in high pitched plainy the same rythm
Suggest correction
Give kudos to tab author, rate the tab!
1 2 3 4 5
comments
print report bad tab
guest
You may want to rate the tab now too:
select rating
Wanna post a correction for this tab? Suggest correction