Oops, an error
Loading. Please wait.

Relapse - Still Kickin Tab

38 views 1 this week
no commentswrite comment
1 2 3 4 5
3 more votes to show rating
add to favorites
launch autoscroll
font size
0
reset
how to read this tab
guitar tuner
Autoscroll
slow
fast
+/-
esc
set tempo
stop
Help us to improve Ultimate-Guitar.com Take our survey!
×
Difficulty
intermediate
----------------------------------------------------------------------------|
----------------------------------------------------------------------------|
----------------------------------------------------------------------------|
-222----------1----222-----------2-1----------------------------------------|
-222-----0-2-3-2v--222------0-2-3---3-2v---0-1-2-1-0------------------------|
----0-2-3-------------0-2-3-------------------------3-2p3p2-0-1-3-0-3-5-0-5-|

----------------------------------------------------------------------------|
----------------------------------------------------------------------------|
-------------------------------------------------------------7-9-9p10p9-----|
-----------------6p7p6-9-7-6-7-9-10-9p10p9-7---7h-9-10-7p9p10---------------|
------------5-7-8-----------------------------------------------------------|
7-8-7--5-7-8----------------------------------------------------------------|


------------------------------------------------------------------------7p8p-|
---9-10-9---------------------------------------------------------9-10-------|
--9--------10-9-7---------------------------------7----9-7---10-9------------|
-----------------10-9-7/6-7-7p9p10p9p7-6-7-7p9p10--10-9----10----------------|
-----------------------------------------------------------------------------|
-----------------------------------------------------------------------------|


7---------------------------------------------------------------------------|
-10-9-10-9------------------------------------------------------------------|
----------10-9-7------------------------------------------------------------|
----------------10-9p10p9-7/6/7--7-9-10-9-7/6/7--6-7-6---------------6p7p9--|
------------------------------------------------------8-7/5/7--5p7p8--------|

_____________________[.............[repeat 4 times]........................]
---------------------[-----------------------------------------------------]
---------------------[-------------------------------------------------9-10]
---------------------[------7----9-7--10-9-7-------------7----9-7---10-9---]
-7p9p10-9-10-9-7/6/7-[7-9-10-10-9---10------10-9-777-9-10-10-9---10--------]
---------------------[-----------------------------------------------------]
---------------------[-----------------------------------------------------]

-7p8p7----------------------------------------------------------------------|
------10-9-10-9-------------------------------------------------------------|
---------------10-9-7-------------------------------------------------------|
---------------------10-9p10p9-7/6/7--7-9-10-9-7/6/7--6-7-6-----------------|
-----------------------------------------------------------8-7-5------------|
----------------------------------------------------------------8-7-5-0-8-7-|


----------------------------------------------------------------------------|
----------------------------------------------------------------------------|
----------------------------------------------------------------------------|
---------------------------222222222222222222-------------------------------|
---------------------------222222222222222222-------------------------------|
0-7-5-0-5-3-0-3-1----3-1---000000000000000000-------------------------------|
Suggest correction
Give kudos to tab author, rate the tab!
1 2 3 4 5
comments
print report bad tab
guest
You may want to rate the tab now too:
select rating
Wanna post a correction for this tab? Suggest correction