Oops, an error
Loading. Please wait.

Relentless - No Words Can Describe This Tab

61 views 1 this week
no commentswrite comment
1 2 3 4 5
please rate
add to favorites
launch autoscroll
font size
0
reset
how to read this tab
guitar tuner
Autoscroll
slow
fast
+/-
esc
set tempo
stop
Help us to improve Ultimate-Guitar.com Take our survey!
×
Author
Difficulty
Tuning
intermediate
D A D G B E
Intro Pt. 1 Clean
E|----------------------------------------------------|
B|----------------------------------------------------|
G|---9---5---2---3---9---5---2---3--------------------|
D|--7---3---0---1---7---3---0---1---------------------|
A|-7---3---0---1---7---3---0---1----------------------|
D|7---3---0---1---7---3---0---1-----------------------|

E|1312----------1312--1213-15-151715-171817-18-20b21~-|
B|----13------------12--------------------------------|
G|------10~12p10------------------------------------|2x
D|----------------------------------------------------|
A|----------------------------------------------------|
D|----------------------------------------------------|

Last piece, do this:    
E|1312------------------------------------------------|
B|----1310\8\6\5/6~-----------------------------------|
G|----------------------------------------------------|
D|----------------------------------------------------|
A|----------------------------------------------------|
D|----------------------------------------------------|


Breakdown
E|----------------------------------------------------|
B|----------------------------------------------------|
G|----------------------------------------------------|
D|----56531-----------565686810b--8685635230~---------|
A|3656-----6531~--3656--------------------------------|
D|----------------------------------------------------|

Verse 2x
E|-----------------------------------|----------------|
B|-----------------------------------|----------------|
G|-----------------------------------|--------3b------|
D|-----------------------------------|-----3h4--------|
A|-----------------------------------|0h1h4-----------|
D|77777777-33333333-00000000-11111111|----------------|

E|----------------------------------------------------|
B|----------------------------------------------------|
G|----------------------------------------------------|
D|7--7-7-7-3--3-3-3-0--0-0-0-1--1-1-1-----------------|
A|7--7-7-7-3--3-3-3-0--0-0-0-1--1-1-1-----------------|
D|7--7-7-7-3--3-3-3-0--0-0-0-1--1-1-1-----------------|

Overdub on chorus (lines up with top)
E|----------------------------------------------------|
B|----------------------------------------------------|
G|-77/99/10-55/77/12-55/88\7-3b3b/5b5b----------------|
D|-xx/xx/x--xx/xx/x--xx/xx\x-xxxx/xxxx----------------|
A|-55/77/8--77/99/10-33/66\5-1b1b/3b3b----------------|
D|----------------------------------------------------|

Breakdown
Verse 2x
Chorus 2x

Bridge 4x
E|----------------------------------------------------|
B|----------------------------------------------------|
G|----------------------------------------------------|
D|00-0-00-0h12h13-0h10h12-0h8h10-0h7h8-0h5h7p5--------|
A|00-0-00---------------------------------------------|
D|00-0-00---------------------------------------------|

Chorus 2x
Breakdown 1x
Chorus 1x
Bridge 1x
End on:
D|-00-0-00-|
A|-00-0-00-|
D|-00-0-00-|
Suggest correction
Give kudos to tab author, rate the tab!
1 2 3 4 5
comments
print report bad tab
guest
You may want to rate the tab now too:
select rating
Please do not post tabs as comments. Select "correction" instead!