Oops, an error
Loading. Please wait.

Remedy - Free tab

22 views 1 this week
no commentswrite comment
1 2 3 4 5
3 more votes to show rating
add to favorites
×
Save as Personal and add changes to this tab that will be seen only by you. Learn more ›
×
You can save this tab as Personal to edit and correct it or add notes. All changes will be seen only by you. Learn more »
launch autoscroll
font size
0
reset
how to read this tab
guitar tuner
edit
Autoscroll
slow
fast
+/-
esc
set tempo
stop
[INTRO]
e|---------------------------------------------------------------------------|
B|---------------------------------------------------------------------------|
G|---------------------------------------------------------------------------|
D|----0-------3-------2---------0--3--5--6--5--3--0--------------------------|
A|----0-------3-------2---------0--3--5--6--5--3--0--------------------------|
D|----0-------3-------2---------0--3--5--6--5--3--0--(RING)------------------|

e|---------------------------------------------------------------------------|
B|---------------------------------------------------------------------------|
G|---------------------------------------------------------------------------|
D|----0-------3-------2---------0--3--5--6--5--3--0--------------------------|
A|----0-------3-------2---------0--3--5--6--5--3--0--------------------------|
D|----0-------3-------2---------0--3--5--6--5--3--0--------------------------|

[VERSES]
 PM------------------------------------------------------------------------|
e|---------------------------------------------------------------------------|
B|---------------------------------------------------------------------------|
G|---------------------------------------------------------------------------|
D|----0-x-x-x-x------------3-------------0-x-x-x-x------------3--------------|
A|----0-x-x-x-x----------3---------------0-x-x-x-x----------3----------------|
D|----0-x-x-x-x--------3-----------------0-x-x-x-x--------3------------------|

 PM------------------------------------------------------------------------|
e|---------------------------------------------------------------------------|
B|---------------------------------------------------------------------------|
G|---------------------------------------------------------------------------|
D|----0-x-x-x-x------------3-------------0-x-x-x-x--------3------------------|
A|----0-x-x-x-x----------3---------------0-x-x-x-x--------3------------------|
D|----0-x-x-x-x--------3-----------------0-x-x-x-x--------3------------------|

 PM------------------------------------------------------------------------|
e|---------------------------------------------------------------------------|
B|---------------------------------------------------------------------------|
G|---------------------------------------------------------------------------|
D|----0-x-x-x-x------------3-------------0-x-x-x-x------------3--------------|
A|----0-x-x-x-x----------3---------------0-x-x-x-x----------3----------------|
D|----0-x-x-x-x--------3-----------------0-x-x-x-x--------3------------------|

 PM------------------------------------------------------------------------|
e|---------------------------------------------------------------------------|
B|---------------------------------------------------------------------------|
G|---------------------------------------------------------------------------|
D|----0-x-x-x-x------------3-------------0-x-x-x-x------------3--------------|
A|----0-x-x-x-x----------3---------------0-x-x-x-x----------3----------------|
D|----0-x-x-x-x--------3-----------------0-x-x-x-x--------3------------------|
    
 PM------------------------------------------------------------------------|
e|---------------------------------------------------------------------------|
B|---------------------------------------------------------------------------|
G|---------------------------------------------------------------------------|
D|----0-x-x-x-x------------3-------------0-x-x-x-x------------3--------------|
A|----0-x-x-x-x----------3---------------0-x-x-x-x----------3----------------|
D|----0-x-x-x-x--------3-----------------0-x-x-x-x--------3------------------|

 PM------------------------------------------------------------------------|
e|---------------------------------------------------------------------------|
B|---------------------------------------------------------------------------|
G|---------------------------------------------------------------------------|
D|----0-x-x-x-x------------3-------------0-x-x-x-x--------3------------------|
A|----0-x-x-x-x----------3---------------0-x-x-x-x--------3------------------|
D|----0-x-x-x-x--------3-----------------0-x-x-x-x--------3------------------|


[CHORUS]
e|---------------------------------------------------------------------------|
B|---------------------------------------------------------------------------|
G|---------------------------------------------------------------------------|
D|----0-------3-------2---------0--3--5--6--5--3--0--------------------------|
A|----0-------3-------2---------0--3--5--6--5--3--0--------------------------|
D|----0-------3-------2---------0--3--5--6--5--3--0--(RING)------------------|

e|---------------------------------------------------------------------------|
B|---------------------------------------------------------------------------|
G|---------------------------------------------------------------------------|
D|----0-------3-------2---------0--3--5--6--5--3--0--------------------------|
A|----0-------3-------2---------0--3--5--6--5--3--0--------------------------|
D|----0-------3-------2---------0--3--5--6--5--3--0--------------------------|


[BRIDGE]
e|---------------------------------------------------------------------------|
B|---------------------------------------------------------------------------|
G|---------------------------------------------------------------------------|
D|------6h7p6-----6h7p6------9---------------6h7p6-----6h7p6------9----------|
A|------6h7p6-----6h7p6------9---------------6h7p6-----6h7p6------9----------|
D|------6h7p6-----6h7p6------9---------------6h7p6-----6h7p6------9----------|

 PM------------------------------------------------------------------------|
e|---------------------------------------------------------------------------|
B|---------------------------------------------------------------------------|
G|---------------------------------------------------------------------------|
D|------6h7p6---6-6-6-6-6-6---------------6h7p6---6-6-6-6---------9----------|
A|------6h7p6---6-6-6-6-6-6---------------6h7p6---6-6-6-6---------9----------|
D|------6h7p6---6-6-6-6-6-6---------------6h7p6---6-6-6-6---------9----------|

 PM------------------------------------------------------------------------|
e|---------------------------------------------------------------------------|
B|---------------------------------------------------------------------------|
G|---------------------------------------------------------------------------|
D|------6h7p6---6-6-6-6-6-6---------------6h7p6---6-6-6-6------3----0--------|
A|------6h7p6---6-6-6-6-6-6---------------6h7p6---6-6-6-6------3----0--------|
D|------6h7p6---6-6-6-6-6-6---------------6h7p6---6-6-6-6------3----0--------|


[VERSE - OUTRO]
e|---------------------------------------------------------------------------|
B|---------------------------------------------------------------------------|
G|---------------------------------------------------------------------------|
D|----0-------3-------2---------0--3--5--6--5--3--0--------------------------|
A|----0-------3-------2---------0--3--5--6--5--3--0--------------------------|
D|----0-------3-------2---------0--3--5--6--5--3--0--(RING)------------------|

e|---------------------------------------------------------------------------|
B|---------------------------------------------------------------------------|
G|---------------------------------------------------------------------------|
D|----(0)-------3-------2-------0--3--5--6--5------0--3--5--6--5-------------|
A|----(0)-------3-------2-------0--3--5--6--5------0--3--5--6--5-------------|
D|----(0)-------3-------2-------0--3--5--6--5------0--3--5--6--5-------------|


e|---------------------------------------------------------------------------|
B|---------------------------------------------------------------------------|
G|---------------------------------------------------------------------------|
D|-----0--3--5--6--5------------------3--------0-----------------------------|
A|-----0--3--5--6--5------------------3--------0-----------------------------|
D|-----0--3--5--6--5------------------3--------0-----------------------------|



************************************

| PM  Palm mute
| h   Hammer on
| p   Pull off
| x   dead note

************************************

            
            
Suggest correction
Creating personal tab
Creating personal tab
You can edit any tab online and save it as your Personal.

You can edit, replace or remove any tab part or add personal notes – all changes will be seen only by you.

Personal tabs can be accessed anytime from any device, even offline.
Learn more »
Give kudos to tab author, rate the tab!
1 2 3 4 5
comments
print report bad tab
guest
Wanna post a correction for this tab? Suggest correction