Oops, an error
Loading. Please wait.

Renfue - What You Wanted Tab

1,019 views 1 this week
1 commentread comment
1 2 3 4 5
2 more votes to show rating
add to favorites
launch autoscroll
font size
0
reset
how to read this tab
guitar tuner
Autoscroll
slow
fast
+/-
esc
set tempo
stop
Help us to improve Ultimate-Guitar.com Take our survey!
×
Author
Difficulty
Tuning
novice
D A D G B E
Hey guys, I was one of the guitarist in Renfue for the 6 songs we recorded so this tab 
100% correct. This songs pretty simple, which much of our stuff is, but it's fun to play. Enjoy.
-Rob

Drop D tuning

Intro
e--------------------------------------------------|
b--------------------------------------------------|
g--------------------------------------------------|
d--9----5----7----5--------9----0----5----7--------|
a--9----5----7----5--------9----0----5----7--------|
D--9----5----7----5--------9----0----5----7--------|

e---------------------------------------------------------------------------|
b---------------------------------------------------------------------------|
g---------------------------------------------------------------------------|
d------------16--16--18--18--18--19--19--19--18--18-------------------------|
a--14--14--------------------------------------------19--19--16-16----------|
D---------------------------------------------------------------------------|

Verse
e-----------------------------------------------|
b-----------------------------------------------|
g-----------------------------------------------|
d--9~--0~--5~--5~--------9~--0~--5~--7~---------|
a--9~--0~--5~--5~--------9~--0~--5~--7~---------|
D--9~--0~--5~--5~--------9~--0~--5~--7~---------|

e-----------------------------------------------|
b-----------------------------------------------|
g------------------------------19--18-----------|
d--12~----16--14~----16~---------------19--16---|
a-----------------------------------------------|
D-----------------------------------------------|

Pre-Chorus
e-----------------------------------------------|
b-----------------------------------------------|
g-----------------------------------------------|
d--5----7----5----0~----------------------------|
a--5----7----5----0~----------------------------|
D--5----7----5----0~----------------------------|
   *    *    *
e-----------------------------------------------|
b--5--7--------5--7-----------------------------|
g--------5--7--------5--7-----------------------|
d-----~-harmonics-~-----------------------------|
a-----------------------------------------------|
D-----------------------------------------------|

Chorus (both guitars play rhythm = beafy)
e-----------------------------------------------|
b-----------------------------------------------|
g-----------------------------------------------|
d--9----5----9----0--------9----5----9----0-----|
a--9----5----9----0--------9----5----9----0-----|
D--9----5----9----0--------9----5----9----0-----|

Back into first half of intro
Verse
Prechorus

Chorus (little different at end)
e-------------------------------------------------------------------|
b-------------------------------------------------------------------|
g-------------------------------------------------------------------|
d--9----5----9----0--------9----5----9----0~----------------5~--0~--|
a--9----5----9----0--------9----5----9----0~-----triplets---5~--0~--|
D--9----5----9----0--------9----5----9----0~----9-7-0-7-5-0-5~--0~--|

Bridge
e----------------------------------------------------|
b----------------------------------------------------|
g----------------------------------------------------|
d--9-9-9------9-9-9--9-9-9--5-5-5------5-5-5--5-5-5--|
a--9-9-9------9-9-9--9-9-9--5-5-5------5-5-5--5-5-5--|
D--9-9-9------9-9-9--9-9-9--5-5-5------5-5-5--5-5-5--|

e-----------------------------------------------------|
b-----------------------------------------------------|
g-----------------------------------------------------|
d--9-9-9------9-9-9--9-9-9--5-5-5------5~-----7-7-7~--|
a--9-9-9------9-9-9--9-9-9--5-5-5------5~-----7-7-7~--|
D--9-9-9------9-9-9--9-9-9--5-5-5------5~-----7-7-7~--|

Bridge Lead (Trill=fast picking)
e-----------------------------------------------------|
b--0-----0-----0-----0---0----------------------------|
g--11----14----11----16--19---------------------------|
d-----------------------------------------------------|
a-----------------------------------------------------|
D-----------------------------------------------------|

Chorus (with end part)

Outro
e-----------------------------------------------------|
b-----------------------------------------------------|
g-----------------------------------------------------|
d--4----0----9----2------------------------------0~---|
a--4----0----7----2---------------------End-on---0~---|
D--4----0----7----2------------------------------0~---|

Outro Lead x2
e--------------------4-4-4-4-4-4-4----5-5-5-7-7-7-7-9-9-9-9-9-9-9-----------|
b---------5-5-5-5-----------------------------------------------------------|
g--6-6-6--------------------------------------------------------------------|
d---------------------------------------------------------------------------|
a---------------------------------------------------------------------------|
D---------------------------------------------------------------------------|


e12-12-12-14-14-14-14-16-16-16-16-17-17-17-17-17-17p16-16-16-17p-19p16-16-16-|
b----------------------------------------------------------------x2----------|
g----------------------------------------------------------------------------|
d----------------------------------------------------------------------------|
a----------------------------------------------------------------------------|
D----------------------------------------------------------------------------|

Last part
e--17p-16--------------------------------17p-16--------------------------|
b------------17---------------------------------17----17-19-19-19--------|
g----------------18-18-16-16-16--------------------18--------------------|
d------------------------------------------------------------------------|
a------------------------------------------------------------------------|
D------------------------------------------------------------------------|

e----End-on---17~-------|
b-----------------------|
g-----------------------|
d-----------------------|
a-----------------------|
D-----------------------|
Suggest correction
Give kudos to tab author, rate the tab!
1 2 3 4 5
comments
print report bad tab
1 comment total.
0 reply
samduarte54 10 Jul 14, 2016 04:29 AM

I doubt you'll ever read this, but if you do, could you please post chords for 'We Know', would be greatly appreciated (:

guest
You may want to rate the tab now too:
select rating
Wanna post a correction for this tab? Suggest correction