Oops, an error
Loading. Please wait.

Rickard Willners - Rapture tab

229 views 1 this week
no commentswrite comment
1 2 3 4 5
3 more votes to show rating
add to favorites
×
Save as Personal and add changes to this tab that will be seen only by you. Learn more ›
×
You can save this tab as Personal to edit and correct it or add notes. All changes will be seen only by you. Learn more »
launch autoscroll
font size
0
reset
how to read this tab
guitar tuner
edit
Autoscroll
slow
fast
+/-
esc
set tempo
stop
About this tab version
Complete song tabs, easy to follow and understand. Was this info helpful? Yes No
Tuning:DADGBE (Drop D)


INTRO (Fades in)


E|---------------------|--------------------------|---------------------|-----------------------|
B|---------------------|--------------------------|---------------------|-----------------------|
G|---------------------|--------------------------|---------------------|-----------------------|
D|----7--3-----7--3----|--5--2-----5--2-----3--2--|----7--3-----7--3----|5--2-----2-----2--5--7-|
A|5---------5--------5-|--------3--------4--------|5---------5--------5-|------3-----4----------|
D|---------------------|--------------------------|---------------------|-----------------------|

E|---------------------|--------------------------|---------------------|
B|---------------------|--------------------------|---------------------|
G|---------------------|--------------------------|-------------------7-|
D|----7--3-----7--3----|--5--2-----5--2-----3--2--|----7--3-----3--7----|
A|5---------5--------5-|--------3--------4--------|5---------5----------|
D|---------------------|--------------------------|---------------------|
 
 Harmonizing lead
 High part                          Low part
E|-------------|-----------------| E|-------------|-----------------|
B|-------------|-----------------| B|-------------|-----------------|
G|9-----6------|7~---------------| G|12-----9-----|10~--------------|
D|-------------|-----------------| D|-------------|-----------------|
A|-------------|-----------------| A|-------------|-----------------|
D|-------------|-----------------| D|-------------|-----------------|

 Rythm guitar                              (pick slide)
E|-------------|--------------|-----|-----|--------------------|
B|-------------|--------------|-----|-----|--------------------|
G|-------------|--------------|-----|-----|--------------------|
D|--5----2-----|--------------|-----|-----|--------------------|
A|--3----0-----|--0-----------|-----|-----|-----X\\\\\\\\\\\\\\|
D|-------------|--0-----------|-----|-----|-----X\\\\\\\\\\\\\\|


VERSE


      PM------------------------|     PM------------------------|
E|-------------------------------|-------------------------------|
B|-------------------------------|-------------------------------|
G|-------------------------------|-------------------------------|
D|-------------------------------|-------------------------------|
A|0--0-0-0-0-0-0-0-0-0-0-0-0-0-0-|5--5-5-5-5-5-5-5-5-5-5-5-5-5-0-|
D|0--0-0-0-0-0-0-0-0-0-0-0-0-0-0-|5--5-5-5-5-5-5-5-5-5-5-5-5-5-0-|

      PM------------------------|     PM--| -|     PM----|
E|-------------------------------|------------------------------|
B|-------------------------------|------------------------------|
G|-------------------------------|------------------------------|
D|-------------------------------|-------------2--2-2-2-2-2-2-2-|
A|3--3-3-3-3-3-3-3-3-3-3-3-3-3-3-|3--3-3-3-3-3-0--0-0-0-0-0-0-0-|
D|2--2-2-2-2-2-2-2-2-2-2-2-2-2-2-|3--3-3-3-3-3------------------|

      PM------------------------|     PM------------------------|
E|-------------------------------|-------------------------------|
B|-------------------------------|-------------------------------|
G|-------------------------------|-------------------------------|
D|-------------------------------|-------------------------------|
A|0--0-0-0-0-0-0-0-0-0-0-0-0-0-0-|5--5-5-5-5-5-5-5-5-5-5-5-5-5-0-|
D|0--0-0-0-0-0-0-0-0-0-0-0-0-0-0-|5--5-5-5-5-5-5-5-5-5-5-5-5-5-0-|

      PM------------------------|     PM--| -|     PM----|
E|-------------------------------|------------------------------|
B|-------------------------------|------------------------------|
G|-------------------------------|------------------------------|
D|-------------------------------|-------------2--2-2-2-2-2-2-2-|
A|3--3-3-3-3-3-3-3-3-3-3-3-3-3-3-|3--3-3-3-3-3-0--0-0-0-0-0-0-0-|
D|2--2-2-2-2-2-2-2-2-2-2-2-2-2-2-|3--3-3-3-3-3------------------|

 Harmonizing Rythm
 Low part                          High part
E|------------------------------| E|------------------------------------|
B|------------------------------| B|------------------------------------|
G|5-5-5-5-5-5--6--6-6-6-6-6-6-6-| G|10-10-10-10-10-12--9--9-9-9-9-9-9-9-|
D|------------------------------| D|------------------------------------|
A|3-3-3-3-3-3--4--4-4-4-4-4-4-4-| A|8--8--8--8--8--10--7--7-7-7-7-7-7-7-|
D|------------------------------| D|------------------------------------|


BRIDGE


 Lead
E|-----------------|---------------------|------------------------|------------------------|
B|-----------------|---------------------|11----------------11----|13-------------------14-|
G|7---7-9-10-9-7---|---------9-12-9----9-|---10----------10----10-|---12-------------12----|
D|--7------------7-|10----10--------11---|------12----12----------|------14-------14-------|
A|-----------------|---10----------------|---------13-------------|---------15-16----------|
D|-----------------|---------------------|------------------------|------------------------|

E|-----------------------|------------9---------|10----------------10---|
B|15----15-17-18-17-15---|13------------10---10-|---11----------11----11|
G|---14----------------14|---12----12------9----|------10----10---------|
D|-----------------------|------14--------------|---------12------------|
A|-----------------------|----------------------|-----------------------|
D|-----------------------|----------------------|-----------------------|
Low part                                High part
E|12----------12----------|------------| E|------------15-12----12-|13~---------|
B|---13----13----14----14-|15~---------| B|------------------14----|------------|
G|------12----------14----|------------| G|------------------------|------------|
D|------------------------|------------| D|------------------------|------------|
A|------------------------|------------| A|------------------------|------------|
D|------------------------|------------| D|------------------------|------------|

 Rythm
E|--------------|--------------|--------------|--------------|
B|--------------|--------------|--------------|--------------|
G|--------------|--------------|--------------|--------------|
D|7--7--7-7-7-7-|5--5-5-2--2-2-|3--3--3-3-3-3-|5--5-5-7--7-7-|
A|5--5--5-5-5-5-|3--3-3-0--0-0-|1--1--1-1-1-1-|3--3-3-4--4-4-|
D|--------------|--------------|--------------|--------------|

E|--------------|--------------|--------------|--------------|
B|--------------|--------------|--------------|--------------|
G|--------------|--------------|--------------|--------------|
D|7--7--7-7-7-7-|5--5-5-2--2-2-|3--3--3-3-3-3-|5--5-5-7------|
A|5--5--5-5-5-5-|3--3-3-0--0-0-|1--1--1-1-1-1-|3--3-3-4------|
D|--------------|--------------|--------------|--------------|


CHORUS


E|---------------------|-----------------------|---------------------|-----------------------|
B|---------------------|-----------------------|---------------------|-----------------------|
G|---------------------|-----------------------|---------------------|-----------------------|
D|----7--3-----7--3----|5--2-----5--2-----3--2-|----7--3-----7--3----|5--2-----2-----2--5--7-|
A|5---------5--------5-|------3--------4-------|5---------5--------5-|------3-----4----------|
D|---------------------|-----------------------|---------------------|-----------------------|

E|---------------------|-----------------------|---------------------|-----------------------|
B|---------------------|-----------------------|---------------------|-----------------------|
G|---------------------|-----------------------|---------------------|-----------------------|
D|----7--3-----7--3----|5--2-----5--2-----3--2-|----8--------8-------|---0--3--5-----2--5--7-|
A|5---------5--------5-|------3--------4-------|5------8--5-----8--5-|2-----------3----------|
D|---------------------|-----------------------|---------------------|-----------------------|

E|---------------------|-----------------------|---------------------|-----------------------|
B|---------------------|-----------------------|---------------------|-----------------------|
G|---------------------|-----------------------|---------------------|-----------------------|
D|----7--3-----7--3----|5--2-----5--2-----3--2-|----7--3-----7--3----|5--2-----2-----2--5--7-|
A|5---------5--------5-|------3--------4-------|5---------5--------5-|------3-----4----------|
D|---------------------|-----------------------|---------------------|-----------------------|

E|---------------------|-----------------------|---------------------|-----------------------|
B|---------------------|-----------------------|---------------------|-----------------------|
G|---------------------|-----------------------|---------------------|-----------------------|
D|----7--3-----7--3----|5--2-----5--2-----3--2-|----8--------8-------|------2--5--2----------|
A|5---------5--------5-|------3--------4-------|5------8--5-----8--5-|0--4-----------4--0--4-|
D|---------------------|-----------------------|---------------------|-----------------------|

 Ending Harmonies
 Low part                           High part
E|12----------------------|------| E|15-12----------------12-|13----|
B|---14----------------14-|15----| B|------14----------14----|------|
G|------12----------12----|------| G|---------12----12-------|------|
D|---------14-11-14-------|------| D|------------14----------|------|
A|------------------------|------| A|------------------------|------|
D|------------------------|------| D|------------------------|------|


VERSE 2


      PM------------------------|     PM------------------------|
E|-------------------------------|-------------------------------|
B|-------------------------------|-------------------------------|
G|-------------------------------|-------------------------------|
D|-------------------------------|-------------------------------|
A|0--0-0-0-0-0-0-0-0-0-0-0-0-0-0-|5--5-5-5-5-5-5-5-5-5-5-5-5-5-0-|
D|0--0-0-0-0-0-0-0-0-0-0-0-0-0-0-|5--5-5-5-5-5-5-5-5-5-5-5-5-5-0-|

      PM------------------------|     PM--| -|     PM----|
E|-------------------------------|------------------------------|
B|-------------------------------|------------------------------|
G|-------------------------------|------------------------------|
D|-------------------------------|-------------2--2-2-2-2-2-2-2-|
A|3--3-3-3-3-3-3-3-3-3-3-3-3-3-3-|3--3-3-3-3-3-0--0-0-0-0-0-0-0-|
D|2--2-2-2-2-2-2-2-2-2-2-2-2-2-2-|3--3-3-3-3-3------------------|

      PM------------------------|     PM------------------------|
E|-------------------------------|-------------------------------|
B|-------------------------------|-------------------------------|
G|-------------------------------|-------------------------------|
D|-------------------------------|-------------------------------|
A|0--0-0-0-0-0-0-0-0-0-0-0-0-0-0-|5--5-5-5-5-5-5-5-5-5-5-5-5-5-0-|
D|0--0-0-0-0-0-0-0-0-0-0-0-0-0-0-|5--5-5-5-5-5-5-5-5-5-5-5-5-5-0-|

      PM------------------------|     PM--| -|     PM----|
E|-------------------------------|------------------------------|
B|-------------------------------|------------------------------|
G|-------------------------------|------------------------------|
D|-------------------------------|-------------2--2-2-2-2-2-2-2-|
A|3--3-3-3-3-3-3-3-3-3-3-3-3-3-3-|3--3-3-3-3-3-0--0-0-0-0-0-0-0-|
D|2--2-2-2-2-2-2-2-2-2-2-2-2-2-2-|3--3-3-3-3-3------------------|

 Harmonizing Rythm
 Low part                          High part
E|------------------------------| E|------------------------------------|
B|------------------------------| B|------------------------------------|
G|5-5-5-5-5-5--6--6-6-6-6-6-6-6-| G|10-10-10-10-10-12--9--9-9-9-9-9-9-9-|
D|------------------------------| D|------------------------------------|
A|3-3-3-3-3-3--4--4-4-4-4-4-4-4-| A|8--8--8--8--8--10--7--7-7-7-7-7-7-7-|
D|------------------------------| D|------------------------------------|


BRIDGE 2


 Lead
E|-----------------|---------------------|------------------------|------------------------|
B|-----------------|---------------------|11----------------11----|13-------------------14-|
G|7---7-9-10-9-7---|---------9-12-9----9-|---10----------10----10-|---12-------------12----|
D|--7------------7-|10----10--------11---|------12----12----------|------14-------14-------|
A|-----------------|---10----------------|---------13-------------|---------15-16----------|
D|-----------------|---------------------|------------------------|------------------------|

E|-----------------------|------------9---------|10----------------10---|
B|15----15-17-18-17-15---|13------------10---10-|---11----------11----11|
G|---14----------------14|---12----12------9----|------10----10---------|
D|-----------------------|------14--------------|---------12------------|
A|-----------------------|----------------------|-----------------------|
D|-----------------------|----------------------|-----------------------|
Low part                                High part
E|12----------12----------|------------| E|------------15-12----12-|13~---------|
B|---13----13----14----14-|15~---------| B|------------------14----|------------|
G|------12----------14----|------------| G|------------------------|------------|
D|------------------------|------------| D|------------------------|------------|
A|------------------------|------------| A|------------------------|------------|
D|------------------------|------------| D|------------------------|------------|

 Rythm
E|--------------|--------------|--------------|--------------|
B|--------------|--------------|--------------|--------------|
G|--------------|--------------|--------------|--------------|
D|7--7--7-7-7-7-|5--5-5-2--2-2-|3--3--3-3-3-3-|5--5-5-7--7-7-|
A|5--5--5-5-5-5-|3--3-3-0--0-0-|1--1--1-1-1-1-|3--3-3-4--4-4-|
D|--------------|--------------|--------------|--------------|

E|--------------|--------------|--------------|--------------|
B|--------------|--------------|--------------|--------------|
G|--------------|--------------|--------------|--------------|
D|7--7--7-7-7-7-|5--5-5-2--2-2-|3--3--3-3-3-3-|5--5-5-7------|
A|5--5--5-5-5-5-|3--3-3-0--0-0-|1--1--1-1-1-1-|3--3-3-4------|
D|--------------|--------------|--------------|--------------|


BREAKDOWN


    PM-----|      ---|    ---|   ---|                 -----|       ---|    
E|-----------------------|------------------------|-----------------------|
B|-----------------------|------------------------|-----------------------|
G|-----------------------|------------------------|-----------------------|
D|-----------------------|------------------------|-----------------------|
A|0--0-0-0-0------0-0-0--|0-0-0--0-0--------------|0--0-0-0-0------0-0-0--|
D|0--0-0-0-0-/12--0-0-0--|0-0-0--0-0-/6---5--3--5-|0--0-0-0-0-/12--0-0-0--|

 Harmonizing Rythm (played simultaneously)
 Rythm                      Low part                   High part
E|-----------------------| E|-----------------------| E|-----------------------|
B|-----------------------| B|-----------------------| B|-----------------------|
G|-----------------------| G|7--7--7--7--6--6--6--6-| G|10-10-10-10-9--9--9--9-|
D|3--3--3--3--2--2--2--2-| D|-----------------------| D|-----------------------|
A|1--1--1--1--0--0--0--0-| A|5--5--5--5--4--4--4--4-| A|8--8--8--8--7--7--7--7-|
D|-----------------------| D|-----------------------| D|-----------------------|

    PM-----|      ---|    ---|   ---|                 -----|       ---|   PM--|   ---|       -----| 
E|-----------------------|------------------------|-----------------------|------------------------|
B|-----------------------|------------------------|-----------------------|------------------------|
G|-----------------------|------------------------|-----------------------|------------------------|
D|-----------------------|------------------------|-----------------------|------------------------|
A|0--0-0-0-0------0-0-0--|0-0-0--0-0--------------|0--0-0-0-0------0-0-0--|0-0-0--0-0-6---5--3--2--|
D|0--0-0-0-0-/12--0-0-0--|0-0-0--0-0-/6---5--3--5-|0--0-0-0-0-/12--0-0-0--|0-0-0--0-0-6---5--3--2--|


PRE-SOLO


 Lead
E|------------------------|---------------------|------------------------|
B|------------------------|---------------------|------------------------|
G|---10-14-10----14-10----|12-9----12-9----10-9-|---10-14-10----14-10----|
D|12----------12-------12-|-----10------11------|12----------12-------12-|
A|------------------------|---------------------|------------------------|
D|------------------------|---------------------|------------------------|

 Harmonizing Lead
 Low part
E|---------------------|------------------------|----------------------|
B|---------------------|------------------------|-------------------10-|
G|12-9----9----9-12-14-|---10-14-10----14-10----|12-9----12-9----12----|
D|-----10---11---------|12----------12-------12-|-----10------11-------|
A|---------------------|------------------------|----------------------|
D|---------------------|------------------------|----------------------|

E|------------------------|------------------------|-----------|
B|11----------12----------|13----------14----------|15~--------|
G|---10----10----10----10-|---12----12----12----12-|-----------|
D|------12----------12----|------14----------14----|-----------|
A|------------------------|------------------------|-----------|
D|------------------------|------------------------|-----------|

 High part
E|------------------9-|------10-------10-------|8-----8--------9-|
B|---------------10---|---10----10-------10----|--8-----8---10---|
G|----------9-12------|10----------10-------10-|----9-----9------|
D|--------------------|------------------------|-----------------|
A|--------------------|------------------------|-----------------|
D|--------------------|------------------------|-----------------|

E|10----------10----------|12----------12----------|13~--------|
B|---11----11----12----12-|---13----13----14----14-|-----------|
G|------10----------10----|------12----------12----|-----------|
D|------------------------|------------------------|-----------|
A|------------------------|------------------------|-----------|
D|------------------------|------------------------|-----------|

Rythm

   PM-------------|                  PM-------------|
E|----------------|----------------|----------------|----------------|
B|----------------|----------------|----------------|----------------|
G|----------------|----------------|----------------|----------------|
D|----------------|5-5-5-5-2-2-2-2-|----------------|5-5-5-5-7-7-7-7-|
A|0-0-0-0-0-0-0-0-|3-3-3-3-0-0-0-0-|0-0-0-0-0-0-0-0-|3-3-3-3-4-4-4-4-|
D|0-0-0-0-0-0-0-0-|----------------|0-0-0-0-0-0-0-0-|----------------|

   PM-------------|                  
E|----------------|----------------|----------------|----------------|
B|----------------|----------------|----------------|----------------|
G|----------------|----------------|----------------|----------------|
D|----------------|5-5-5-5-2-2-2-2-|3-3-3-3-5-5-5-5-|5-5-5-5-7-7-7-7-|
A|0-0-0-0-0-0-0-0-|3-3-3-3-0-0-0-0-|1-1-1-1-2-2-2-2-|3-3-3-3-4-4-4-4-|
D|0-0-0-0-0-0-0-0-|----------------|----------------|----------------|



MAIN SOLO


Lead

 Slow Bend       
E|10-----------------------------|-----------------------------|
B|13b15--------13b15-13p12p11p10-|-----------------------------|
G|-------------------------------|13-12-10----10-12------------|
D|-------------------------------|---------12-------12~--------|
A|-------------------------------|-----------------------------|
D|------------------------------|-----------------------------|

  PM---------|           PM---|                
E|--------------------------------------|----------------------------------|
B|--------------------------------5-6-8-|11-10-9-10-12-10-9-10-13~---------|
G|------------5-7-5---5-------5-7-------|----------------------------------|
D|------5--7--------7---7-6-7-----------|----------------------------------|
A|5--8----------------------------------|----------------------------------|
D|--------------------------------------|----------------------------------|

E|10---------13----------16-----|--------15---------------13-|
B|13b15------16b18-------19b21--|--------18b20---------15----|
G|------------------------------|----------------------------|
D|------------------------------|----------------------------|
A|------------------------------|----------------------------|
D|------------------------------|----------------------------|

E|17-13--------------------------------|------------------------------|
B|------15-------------14-15~----------|17--18--17--15----------------|
G|---------14----14-15--------------14-|----------------14~-----------|
D|------------15-----------------------|------------------------------|
A|-------------------------------------|------------------------------|
D|-------------------------------------|------------------------------|

Harmony Tremolo Part

 High Part                                    Low Part       
 Tremolo Picking----------------|              Tremolo Picking-------------|
E|------------------------------------------| |-------------------------------------|
B|18--14--17--13--15--10--15--14--17--18~---| |15--10--13--8--11--6--10--5--9--10~--|
G|------------------------------------------| |-------------------------------------|
D|------------------------------------------| |-------------------------------------|
A|------------------------------------------| |-------------------------------------|
D|------------------------------------------| |-------------------------------------|

E|--------------------------------------------|--------------------------------------------|
B|--------------------------------------------|--------------------------------------------|
G|------9-10-12-10-9----9----------9-10-12-13-|14-13-12-10-12-13-14-13-12-10-12-13-12b14---|
D|---10--------------12---12-11-12------------|--------------------------------------------|
A|12------------------------------------------|--------------------------------------------|
D|--------------------------------------------|--------------------------------------------|

E|-------------------------15------15--16~----|--15b17-15-13-------------|
B|15~----15-17-18--17--18------18-------------|-------------15--------13-|
G|--------------------------------------------|---------------14---------|
D|--------------------------------------------|--------------------------|
A|--------------------------------------------|--------------------------|
D|--------------------------------------------|--------------------------|

E|-12--15--12-----------------|-------------------|
B|-------------15--14~--------|15~----------------|
G|----------------------------|-------------------|
D|----------------------------|-------------------|
A|----------------------------|-------------------|
D|----------------------------|-------------------|

ENDING HARMONIES (last four bars of main solo)

 High Part
E|-------10-12-13-12-10----10----------|------------9-12-9--------------9-|
B|11~-------------------13----13-11-13-|10-------10--------10--------10---|
G|-------------------------------------|-------9--------------9----9------|
D|-------------------------------------|----11------------------11--------|
A|-------------------------------------|----------------------------------|
D|-------------------------------------|----------------------------------|

E|-------10-12-13-12-10----10----------|---------------------------|
B|11~-------------------13----13-11-13-|10--11-10------------------|
G|-------------------------------------|----------12-10-9~---------|
D|-------------------------------------|---------------------------|
A|-------------------------------------|---------------------------|
D|-------------------------------------|---------------------------|


 Low Part
E|-------------------------------------|-------------12-15-12--------------12-|
B|-------11-13-15-13-11----11----------|----------14----------14---------14---|
G|10~-------------------14----14-12-14-|-------12----------------12----12-----|
D|-------------------------------------|14--14----------------------14--------|
A|-------------------------------------|--------------------------------------|
D|-------------------------------------|--------------------------------------|


E|-------------------------------------|---------------------------|
B|-------11-13-15-13-11----11----------|---------------------------|
G|----------------------14----14-12-14-|-----12--------------------|
D|15~----------------------------------|14------15-14-12-11~-------|
A|-------------------------------------|---------------------------|
D|-------------------------------------|---------------------------|

Solo Rythm

   PM-------|   -|   --------|   -|   --------|   -|   --------|   -|
E|----------------|----------------|----------------|----------------|
B|----------------|----------------|----------------|----------------|
G|----------------|----------------|----------------|----------------|
D|----------------|----------------|----------------|----------------|
A|0-0-0-0-0-0-0-0-|0-0-0-0-0-0-0-0-|0-0-0-0-0-0-0-0-|0-0-0-0-0-0-0-0-|
D|0-0-0-0-0-0-0-0-|0-0-0-0-0-0-0-0-|0-0-0-0-0-0-0-0-|0-0-0-0-0-0-0-0-|

   PM-------|   -|   --------|   -|   --------|   -| 
E|----------------|----------------|----------------|----------------|
B|----------------|----------------|----------------|----------------|
G|----------------|----------------|----------------|----------------|
D|----------------|----------------|----------------|3-3-3-3-2-2-2-2-|
A|0-0-0-0-0-0-0-0-|0-0-0-0-0-0-0-0-|0-0-0-0-0-0-0-0-|1-1-1-1-0-0-0-0-|
D|0-0-0-0-0-0-0-0-|0-0-0-0-0-0-0-0-|0-0-0-0-0-0-0-0-|----------------|

   PM-------|   -|   --------|   -|   --------|   -|   --------|   -|
E|----------------|----------------|----------------|----------------|
B|----------------|----------------|----------------|----------------|
G|----------------|----------------|----------------|----------------|
D|----------------|----------------|----------------|----------------|
A|0-0-0-0-0-0-0-0-|0-0-0-0-0-0-0-0-|0-0-0-0-0-0-0-0-|0-0-0-0-0-0-0-0-|
D|0-0-0-0-0-0-0-0-|0-0-0-0-0-0-0-0-|0-0-0-0-0-0-0-0-|0-0-0-0-0-0-0-0-|

   PM-------|   -|   --------|   -|   --------|   -| 
E|----------------|----------------|----------------|----------------|
B|----------------|----------------|----------------|----------------|
G|----------------|----------------|----------------|----------------|
D|----------------|----------------|----------------|3-3-3-3-2-2-2-2-|
A|0-0-0-0-0-0-0-0-|0-0-0-0-0-0-0-0-|0-0-0-0-0-0-0-0-|1-1-1-1-0-0-0-0-|
D|0-0-0-0-0-0-0-0-|0-0-0-0-0-0-0-0-|0-0-0-0-0-0-0-0-|----------------|

E|--------------------|--------------------|--------------------|--------------------|
B|--------------------|--------------------|--------------------|--------------------|
G|--------------------|--------------------|--------------------|--------------------|
D|3---3---3--3--3--3--|2---2---2--2--2--2--|3---3---3--3--3--3--|7--7--7--7--7-------|
A|1---1---1--1--1--1--|0---0---0--0--0--0--|1---1---1--1--1--1--|4--4--4--4--4-------|
D|--------------------|--------------------|--------------------|--------------------|


CHORUS 2


E|---------------------|-----------------------|---------------------|-----------------------|
B|---------------------|-----------------------|---------------------|-----------------------|
G|---------------------|-----------------------|---------------------|-----------------------|
D|----7--3-----7--3----|5--2-----5--2-----3--2-|----7--3-----7--3----|5--2-----2-----2--5--7-|
A|5---------5--------5-|------3--------4-------|5---------5--------5-|------3-----4----------|
D|---------------------|-----------------------|---------------------|-----------------------|

E|---------------------|-----------------------|---------------------|-----------------------|
B|---------------------|-----------------------|---------------------|-----------------------|
G|---------------------|-----------------------|---------------------|-----------------------|
D|----7--3-----7--3----|5--2-----5--2-----3--2-|----8--------8-------|---0--3--5-----2--5--7-|
A|5---------5--------5-|------3--------4-------|5------8--5-----8--5-|2-----------3----------|
D|---------------------|-----------------------|---------------------|-----------------------|

E|---------------------|-----------------------|---------------------|-----------------------|
B|---------------------|-----------------------|---------------------|-----------------------|
G|---------------------|-----------------------|---------------------|-----------------------|
D|----7--3-----7--3----|5--2-----5--2-----3--2-|----7--3-----7--3----|5--2-----2-----2--5--7-|
A|5---------5--------5-|------3--------4-------|5---------5--------5-|------3-----4----------|
D|---------------------|-----------------------|---------------------|-----------------------|

E|---------------------|-----------------------|---------------------|
B|---------------------|-----------------------|---------------------|
G|---------------------|-----------------------|---------------------|
D|----7--3-----7--3----|5--2-----5--2-----3--2-|----7--3-----7--3----|
A|5---------5--------5-|------3--------4-------|5---------5--------5-|
D|---------------------|-----------------------|---------------------|


PRE-OUTRO BRIDGE


 Rythm
E|---------------|---------|---------|
B|---------------|---------|---------|
G|---------------|---------|---------|
D|7-------5------|3--------|5--------|
A|5-------3------|1--------|3--------|
D|---------------|---------|---------|

   PM--------------------------------|
E|------------------------|------------------------|
B|------------------------|------------------------|
G|------------------------|------------------------|
D|------------------------|2--2--2--2--2--2--2--2--|
A|3--3--3--3--3--3--3--3--|0--0--0--0--4--4--4--4--|
D|3--3--3--3--3--3--3--3--|------------------------|


 Rythm Harmonies (played simultaneously)
 Low part
E|-----------------|------------------|------------------------|-------------------|
B|-----------------|------------------|------------------------|-------------------|
G|10------9--------|7-------9---------|10-10-10-10-10-10-10-10-|9--9--9--9---------|
D|-----------------|------------------|------------------------|------------X\\\\\-|
A|8-------7--------|5-------7---------|8--8--8--8--8--8--8--8--|7--7--7--7--X\\\\\-|
D|-----------------|------------------|------------------------|-------------------|

 High part
E|-----------------|------------------|------------------------|-------------------|
B|-----------------|------------------|------------------------|-------------------|
G|14------12-------|10------12--------|14-14-14-14-14-14-14-14-|12-12-12-12--------|
D|-----------------|------------------|------------------------|------------X\\\\\-|
A|12------10-------|8-------10--------|12-12-12-12-12-12-12-12-|10-10-10-10-X\\\\\-|
D|-----------------|------------------|------------------------|-------------------|


OUTRO BRIDGE


Rythm

E|----------------|----------------|----------------|----------------|
B|----------------|----------------|----------------|----------------|
G|----------------|----------------|----------------|----------------|
D|7-7-7-7-7-7-7-7-|5-5-5-5-2-2-2-2-|3-3-3-3-3-3-3-3-|5-5-5-5-7-7-7-7-|
A|5-5-5-5-5-5-5-5-|3-3-3-3-0-0-0-0-|1-1-1-1-1-1-1-1-|3-3-3-3-4-4-4-4-|
D|----------------|----------------|----------------|----------------|

E|----------------|----------------|----------------|----------------|
B|----------------|----------------|----------------|----------------|
G|----------------|----------------|----------------|----------------|
D|7-7-7-7-7-7-7-7-|5-5-5-5-2-2-2-2-|3-3-3-3-3-3-3-3-|5-5-5-5-7-7-7-7-|
A|5-5-5-5-5-5-5-5-|3-3-3-3-0-0-0-0-|1-1-1-1-1-1-1-1-|3-3-3-3-4-4-4-4-|
D|----------------|----------------|----------------|----------------|

Rythm Harmonies

 Low part
E|------------------------|----------------|----------------|--------------------|
B|------------------------|----------------|----------------|--------------------|
G|10-10-10-10-10-10-10-10-|9-9-9-9-6-6-6-6-|7-7-7-7-7-7-7-7-|9-9-9-9-12-12-12-12-|
D|------------------------|----------------|----------------|--------------------|
A|8--8--8--8--8--8--8--8--|7-7-7-7-4-4-4-4-|5-5-5-5-5-5-5-5-|7-7-7-7-10-10-10-10-|
D|------------------------|----------------|----------------|--------------------|

E|------------------------|----------------|----------------|--------------------|
B|------------------------|----------------|----------------|--------------------|
G|10-10-10-10-10-10-10-10-|9-9-9-9-6-6-6-6-|7-7-7-7-7-7-7-7-|9-9-9-9-12-12-12-12-|
D|------------------------|----------------|----------------|--------------------|
A|8--8--8--8--8--8--8--8--|7-7-7-7-4-4-4-4-|5-5-5-5-5-5-5-5-|7-7-7-7-10-10-10-10-|
D|------------------------|----------------|----------------|--------------------|

 High part
E|------------------------|--------------------|------------------------|------------------------|
B|------------------------|--------------------|------------------------|------------------------|
G|14-14-14-14-14-14-14-14-|12-12-12-12-9-9-9-9-|10-10-10-10-10-10-10-10-|12-12-12-12-14-14-14-14-|
D|------------------------|--------------------|------------------------|------------------------|
A|12-12-12-12-12-12-12-12-|10-10-10-10-7-7-7-7-|8--8--8--8--8--8--8--8--|10-10-10-10-12-12-12-12-|
D|------------------------|--------------------|------------------------|------------------------|

E|------------------------|--------------------|------------------------|------------------------|
B|------------------------|--------------------|------------------------|------------------------|
G|14-14-14-14-14-14-14-14-|12-12-12-12-9-9-9-9-|10-10-10-10-10-10-10-10-|12-12-12-12-14-14-14-14-|
D|------------------------|--------------------|------------------------|------------------------|
A|12-12-12-12-12-12-12-12-|10-10-10-10-7-7-7-7-|8--8--8--8--8--8--8--8--|10-10-10-10-12-12-12-12-|
D|------------------------|--------------------|------------------------|------------------------|


 Lead Harmonies (last two bars)
 Low part
E|10----------------10----|12----------12----------|-----------|
B|---11----------11----11-|---13----13----14----14-|15~--------|
G|------10----10----------|------12----------14----|-----------|
D|---------12-------------|------------------------|-----------|
A|------------------------|------------------------|-----------|
D|------------------------|------------------------|-----------|

 High part
E|13-10----------10-13-10-|15-12----12-15-12----12-|13~--------|
B|------11----11----------|------13----------14----|-----------|
G|---------10-------------|------------------------|-----------|
D|------------------------|------------------------|-----------|
A|------------------------|------------------------|-----------|
D|------------------------|------------------------|-----------|


OUTRO


Rythm
   PM----|      -----|       -----|      -----|       -----|      -----|       -----|      -----|
E|------------------------|------------------------|------------------------|------------------------|
B|------------------------|------------------------|------------------------|------------------------|
G|------------------------|------------------------|------------------------|------------------------|
D|------------------------|------------------------|------------------------|2--2--2--2--2--2--2--2--|
A|0--0--0--0--3--3--3--3--|3--3--3--3--5--5--5--5--|3--3--3--3--6--6--6--6--|0--0--0--0--4--4--4--4--|
D|0--0--0--0--2--2--2--2--|3--3--3--3--5--5--5--5--|3--3--3--3--6--6--6--6--|------------------------|

   PM----|      -----|       -----|      -----|       -----|      -----|     
E|------------------------|------------------------|------------------------|------------------------|
B|------------------------|------------------------|------------------------|------------------------|
G|------------------------|------------------------|------------------------|------------------------|
D|------------------------|------------------------|------------------------|2--2--2--2--2--2--2--2--|
A|0--0--0--0--3--3--3--3--|3--3--3--3--5--5--5--5--|3--3--3--3--6--6--6--6--|0--0--0--0--4--4--4--4--|
D|0--0--0--0--2--2--2--2--|3--3--3--3--5--5--5--5--|3--3--3--3--6--6--6--6--|------------------------|

 Rythm Harmonies (played the last four bars of the outro)
 Low part
E|-----------------------|---------------------------|-----------------------|-----------------------|
B|-----------------------|---------------------------|-----------------------|-----------------------|
G|7--7--7--7--9--9--9--9-|10--10--10--10--9--9--9--9-|7--7--7--7--4--4--4--4-|6--6--6--6--6--6--6--6-|
D|-----------------------|---------------------------|-----------------------|-----------------------|
A|5--5--5--5--7--7--7--7-|8---8---8---8---7--7--7--7-|5--5--5--5--2--2--2--2-|4--4--4--4--4--4--4--4-|
D|-----------------------|---------------------------|-----------------------|-----------------------|

 High part
E|------------------------|------------------------|------------------------|------------------------|
B|------------------------|------------------------|------------------------|------------------------|
G|10-10-10-10-12-12-12-12-|14-14-14-14-12-12-12-12-|10-10-10-10-7--7--7--7--|9--9--9--9--9--9--9--9--|
D|------------------------|------------------------|------------------------|------------------------|
A|8--8--8--8--10-10-10-10-|12-12-12-12-10-10-10-10-|8--8--8--8--5--5--5--5--|7--7--7--7--7--7--7--7--|
D|------------------------|------------------------|------------------------|------------------------|




E|------------------|------------------|------------------|------------------|
B|------------------|------------------|------------------|------------------|
G|------------------|------------------|------------------|------------------|
D|------------------|------------------|------------------|------------------|
A|0-----------------|------------------|------------------|------------------|
D|0-----------------|------------------|------------------|------------------|


THE END

Legend:
***********************************

PM = Palm mute
X\\ = Pick slide
h = Hammer on
p = Pull off
b = Bend
\ = Slide down
/ = Slide up
~ = Vibrato

***********************************

            
            
Suggest correction
Creating personal tab
Creating personal tab
You can edit any tab online and save it as your Personal.

You can edit, replace or remove any tab part or add personal notes – all changes will be seen only by you.

Personal tabs can be accessed anytime from any device, even offline.
Learn more »
Give kudos to tab author, rate the tab!
1 2 3 4 5
comments
print report bad tab
guest
You may want to rate the tab now too:
select rating
Wanna post a correction for this tab? Suggest correction