Oops, an error
Loading. Please wait.

Rock On - Title Song Hindi Movie Tab

64,534 views 138 this week
1 commentread comment
1 2 3 4 5
excellent!
x 4
add to favorites
launch autoscroll
font size
0
reset
how to read this tab
guitar tuner
Autoscroll
slow
fast
+/-
esc
set tempo
stop
Help us to improve Ultimate-Guitar.com Take our survey!
×
Author
Difficulty
Tuning
novice
D A D G B E
-------------------------------------------------------------------------------
                             Rock on - Title track
-------------------------------------------------------------------------------

Tabbed by: Ankit Kapur
Email: ankit_1_kapur@yahoo.com
Youtube: http://in.youtube.com/user/MegaMaiden21

Tuning: Drop D (dADGBe)

PM -> palm muting (written in < >)


R I F F   1:
e|----------------------|----------------------------------------------------|
B|----------------------|----------------------------------------------------|
G|----------------------|----------------------------------------------------|
D|-<7-7>-7/8----<5-5>-5-|----------------------------------------------------|
A|-<7-7>-7/8----<5-5>-5-|----------------------------------------------------|
d|-<7-7>-7/8----<5-5>-5-|----------------------------------------------------|  x 8 times

            

e|---------------------------------------------------------------------------|
B|---------------------------------------------------------------------------|
G|---------------------------------------------------------------------------|
D|---------------------------------------------------------------------------|
A|--7/-----------------------------------------------------------------------|
d|--7/-----------------------------------------------------------------------|  Slide up

Dil kya kehta hai mera
kya main bataoon
tum ye samjhoge shaayad
main pagal hoon"

(Repeat riff 1, 4 times)


Dil kya kehta hai mera
kya main bataoon

e|---------------------------------------------------------------------------|
B|---------------------------------------------------------------------------|
G|---------------------------------------------------------------------------|
D|--7------------------------------------------------------------------------|
A|--7------------------------------------------------------------------------|
d|--7------------------------------------------------------------------------|


tum ye samjhoge shaayad
main pagal hoon"

e|---------------------------------------------------------------------------|
B|---------------------------------------------------------------------------|
G|--5------------------------------------------------------------------------|
D|----7p5----5h7-------------------------------------------------------------|
A|--------7------------------------------------------------------------------|
d|---------------------------------------------------------------------------|


Dil karta hai tv tower pe
main chad jaoon

e|---------------------------------------------------------------------------|
B|---------------------------------------------------------------------------|
G|---------------------------------------------------------------------------|
D|--7------------------------------------------------------------------------|
A|--7------------------------------------------------------------------------|
d|--7------------------------------------------------------------------------|

chilla chilla ke main ye
sabse keh doon

e|---------------------------------------------------------------------------|
B|---------------------------------------------------------------------------|
G|---------------------------------------------------------------------------|
D|---------------------------------------------------------------------------|
A|--0\14/0-------------------------------------------------------------------|
E|--0\14/0-------------------------------------------------------------------|

(The next riff goes with the lyrics)

Rock on
hai ye waqt ka ishaara
rock on
har lamha pukaara


R I F F   2:
e|---------------------------------------------------------------------------|
B|---------------------------------------------------------------------------|
G|---------------------------------------------------------------------------|
D|--7--<7-7-7-7-7-7>---5--<5-5-5-5-5-5>---4--<4-4-4-4-4-4>---3-<3-3>---5-<5>-|
A|--7--<7-7-7-7-7-7>---5--<5-5-5-5-5-5>---4--<4-4-4-4-4-4>---3-<3-3>---5-<5>-|
d|--7--<7-7-7-7-7-7>---5--<5-5-5-5-5-5>---4--<4-4-4-4-4-4>---3-<3-3>---5-<5>-|

Rock on
yuheen dekhta hai kya tu
rock on
zindagi millegi na dubaara…

e|---------------------------------------------------------------------------|
B|---------------------------------------------------------------------------|
G|---------------------------------------------------------------------------|
D|--7--<7-7-7-7-7-7>---5--<5-5-5-5-5-5>---4--<4-4-4-4-4-4>---3-<3-3>---5-<5>-|
A|--7--<7-7-7-7-7-7>---5--<5-5-5-5-5-5>---4--<4-4-4-4-4-4>---3-<3-3>---5-<5>-|
d|--7--<7-7-7-7-7-7>---5--<5-5-5-5-5-5>---4--<4-4-4-4-4-4>---3-<3-3>---5-<5>-|

Repeat Riff 1, 4 times 

e|---------------------------------------------------------------------------|
B|---------------------------------------------------------------------------|
G|---------------------------------------------------------------------------|
D|---------------------------------------------------------------------------|
A|--7/-----------------------------------------------------------------------|
d|--7/-----------------------------------------------------------------------|  Slide up

Dil karta hai sadkon par
zor se gaoon
sab apne apne ghar ki khidki kholen
phir main aise josheelay geet sunaoon
mere geeton ko sunke sab ye bolen

Rock on
hai ye waqt ka ishaara
rock on
har lamha pukaara
Rock on
yuheen dekhta hai kya tu
rock on
zindagi millegi na dubaara…

(TIll here all the previous riffs repeat)


Solo

e|---------------------------------------------------------------------------|
B|---------------------------------------------------------------------------|
G|---------------------------------------------------------------------------|
D|---------------------------------------------------------------------------|
A|---------------3-3---------------------------------------------------------|
d|--4-5-7-5h7p5------7p5-4---------------------------------------------------| x 2 times


e|---------------------------------------------------------------------------|
B|---------------------------------------------------------------------------|
G|---------------------------------------------------------------------------|
D|------5-5--7p5---~5--7p5---~5---7p5----------------------------------------|
A|--5h7----------7--------7---------7-5-3------------------------------------|
d|---------------------------------------------------------------------------| x 2 times

e|---------------------------------------------------------------------------|
B|---------------------------------------------------------------------------|
G|----------5-------------------5--------------------------------------------|
D|------5-7---7p5---7-5---5-5-7---7p5---7-5----------------------------------|
A|--5h7-----------7-------------------7--------------------------------------|
d|---------------------------------------------------------------------------|

Ok after this point i just played random shit in the solo.
But just throw in some scales n stuff, n the solo will sound nice.


(The next riff is also with the lyrics)

"Jaise jeene ko dil chahe
jee waise tu
meri toh hai bas ye raaye ki.."

R I F F   3:
e|---------------------------------------------------------------------------|
B|---------------------------------------------------------------------------|
G|---------------------------------------------------------------------------|
D|---------------------------------------------------------------------------|
A|-4-<4-4-4-4-4-4>--7-<7-7-7-7-7-7>--10-<10-10-10-10-10-10>--5-<5-5-5-5-5-5>-|
d|-4-<4-4-4-4-4-4>--7-<7-7-7-7-7-7>--10-<10-10-10-10-10-10>--5-<5-5-5-5-5-5>-| x 2 times

"..apne jitne bhi armaan
hain poore karle tu"

Now back to Riff 1

e|----------------------|----------------------------------------------------|
B|----------------------|----------------------------------------------------|
G|----------------------|----------------------------------------------------|
D|-<7-7>-7/8----<5-5>-5-|----------------------------------------------------|
A|-<7-7>-7/8----<5-5>-5-|----------------------------------------------------|
d|-<7-7>-7/8----<5-5>-5-|----------------------------------------------------| x 4 times


Rock on
hai ye waqt ka ishaara
rock on
har lamha pukaara
Rock on
yuheen dekhta hai kya tu
rock on
zindagi millegi na dubaara…       x 2 times

Riff 2 again....4 times at the ending
(put some heavy palm muting on the last riff)

e|---------------------------------------------------------------------------|
B|---------------------------------------------------------------------------|
G|---------------------------------------------------------------------------|
D|--7--<7-7-7-7-7-7>---5--<5-5-5-5-5-5>---4--<4-4-4-4-4-4>---3-<3-3>---5-<5>-|
A|--7--<7-7-7-7-7-7>---5--<5-5-5-5-5-5>---4--<4-4-4-4-4-4>---3-<3-3>---5-<5>-|
d|--7--<7-7-7-7-7-7>---5--<5-5-5-5-5-5>---4--<4-4-4-4-4-4>---3-<3-3>---5-<5>-| x 4 times

And Riff 1 again at the end...

e|----------------------|----------------------------------------------------|
B|----------------------|----------------------------------------------------|
G|----------------------|----------------------------------------------------|
D|-<7-7>-7/8----<5-5>-5-|----------------------------------------------------|
A|-<7-7>-7/8----<5-5>-5-|----------------------------------------------------|
d|-<7-7>-7/8----<5-5>-5-|----------------------------------------------------| x 8 times


Thats it......pretty easy song to play

If u want any help with the song,
watch my video

http://in.youtube.com/watch?v=HJAX54KxtMs


And go watch the movie its kick ass \m/


===============================================================================

| /  slide up
| \  slide down
| h  hammer-on
| p  pull-off
| ~  vibrato
| +  harmonic
| x  Mute note
===============================================================================
Suggest correction
comments
print report bad tab
1 comment total.
+1 reply
Sworn_ 10 wrote on April 1 2009, 05:29 am

thanks mate......
you should put more hindi songs on this site

guest
You may want to rate the tab now too:
select rating
Please do not post tabs as comments. Select "correction" instead!