Oops, an error
Loading. Please wait.

Ronnie Disaronno - Shadows In The Sand bass

54 views 1 this week
no commentswrite comment
1 2 3 4 5
3 more votes to show rating
add to favorites
×
Save as Personal and add changes to this tab that will be seen only by you. Learn more ›
×
You can save this tab as Personal to edit and correct it or add notes. All changes will be seen only by you. Learn more »
launch autoscroll
font size
0
reset
guitar tuner
edit
Autoscroll
slow
fast
+/-
esc
set tempo
stop
Author
Difficulty
Shadows In The Sand
by Ronnie Disaronno
(Title track of Shadows In The Sand - 2010)

Standard Tuning, Fretless Eletric bass.

Track available for download or streaming online:
http://www.reverbnation.com/ronniedisaronno


Intro:
(largely improvised, i don't think it's ever been played the same twice, but here's the 
ideas)
G [-----|------------|--------------------------|---------------|
D [-----|------------|--------------------------|-5-4h5p4p0-0h2-|
A [-----|------------|-2h3-/5-3h5/7-8\7-5-5-5h7-|---------------|
E [-/5v-|-5\3-3-3/5v-|--------------------------|---------------|

[----------5---5-/9-7-9-10p9-7-7h9v-|-7-5-4h5p4p0-0h2v-|
[-7-5h7p5h7--7----------------------|------------------|
[-----------------------------------|------------------|
[-----------------------------------|------------------|

Theme:
[---------5-----------------|---------5-----5h7-7-5h7p5----|
[.--7p5-7---7----7p5-7-8v-7-|---7p5-7---7---------------7-.|
[.--------------------------|-----------------------------.|
[-5------------5------------|-5----------------------------|

Verse:
(now playing with a pick)
[-------------------------------|----------------------------------|
[.------------------------------|---------------------------------.|
[.------------------------------|---------------------------------.|
[-3h5-5-5-5-5-5-5-5-5-5-5-5-5-5-|-0h2h3-3-3-3-3-3-0h2h3-3-3-3-3-3--|

It's a fairly simple structure, just an A / B kinda thing, just have a listen to the 
to get the idea.

            
            
Suggest correction
Creating personal tab
Creating personal tab
You can edit any tab online and save it as your Personal.

You can edit, replace or remove any tab part or add personal notes – all changes will be seen only by you.

Personal tabs can be accessed anytime from any device, even offline.
Learn more »
Give kudos to tab author, rate the tab!
1 2 3 4 5
comments
print report bad tab
guest
You may want to rate the tab now too:
select rating
Wanna post a correction for this tab? Suggest correction