Oops, an error
Loading. Please wait.

Russian Lullaby - Tili Tili Bom Tab

61 views 3 this week
no commentswrite comment
1 2 3 4 5
3 more votes to show rating
add to favorites
launch autoscroll
font size
0
reset
how to read this tab
guitar tuner
Autoscroll
slow
fast
+/-
esc
set tempo
stop
Help us to improve Ultimate-Guitar.com Take our survey!
×
Author
[Intro]
e|-------9-9----8--------------9-9-8----------------------------------------|
B|-------------------10--------------10-------------------------------------|
G|11-11-----------------11-11-----------------------------------------------|
D|--------------------------------------------------------------------------|
A|--------------------------------------------------------------------------|
E|--------------------------------------------------------------------------|

e|------13-13-12-13-11----11-12-9-------------------------------------------|
B|---------------------------------9-10-------------------------------------|
G|11-11----------------------------------11---------------------------------|
D|--------------------------------------------------------------------------|
A|--------------------------------------------------------------------------|
E|--------------------------------------------------------------------------|

e|-------9-9----8--------------9-9-8----------------------------------------|
B|-------------------10--------------10-------------------------------------|
G|11-11-----------------11-11-----------------------------------------------|
D|--------------------------------------------------------------------------|
A|--------------------------------------------------------------------------|
E|--------------------------------------------------------------------------|

e|------13-13-12-13-11----11-12-9-------------------------------------------|
B|---------------------------------9-10-------------------------------------|
G|11-11----------------------------------11---------------------------------|
D|--------------------------------------------------------------------------|
A|--------------------------------------------------------------------------|
E|--------------------------------------------------------------------------|
Suggest correction
Give kudos to tab author, rate the tab!
1 2 3 4 5
comments
print report bad tab
guest
You may want to rate the tab now too:
select rating
Wanna post a correction for this tab? Suggest correction