Oops, an error
Loading. Please wait.

San Lloyd - Hey Ya Tab

39,464 views 3 this week
no commentswrite comment
1 2 3 4 5
x 5
add to favorites
launch autoscroll
font size
0
reset
how to read this tab
guitar tuner
Autoscroll
slow
fast
+/-
esc
set tempo
stop
Help us to improve Ultimate-Guitar.com Take our survey!
×
Author
Hey everybody, I heard this song on Scrubs last week and I love the way Sam Lloyd played
This is as close as I could get to the way he played it considering if you watch himthe
I don't think hes actually playing it.  He's playing lefty with a righty guitar the show 
you do the math.  It's just four or five simple chords throughout the whole song.

*Standard Tuning
*All picking and strumming is light

Picking:
         E                        A                 B        C#m
E|-----------------|----------------------------|------------------------|
B|-----------------|----0h2--2222----0h2--2222--|------------------------|
G|------4--4----4--|----2----2222----2----2222--|--------6666-6----6666--|
D|---2--2-----2----|----2----2222----2----2222--|----22--6666-4h6--6666--|
A|-----------------|--0-0----0000--0-0----0000--|--2-22--4444-4----4444--|
E|-----------------|----------------------------|------------------------|


Strumming:
        E                A           B       C#m
E|-------------|-----------------|-------------------|
B|-------------|----22222222222--|-------------------|
G|----9999999--|----22222222222--|--------666666666--|
D|----9999999--|----22222222222--|----22--644444444--|
A|--7-7777777--|--0-00000000000--|--2-22--444444444--|
E|-------------|-----------------|-------------------|

Just mix the two together to get a good sound.  This is played basically for the whole song.

************************************************************************************************

Here is a second way to play the song.  This is found in a cover up on youtube.

*Standard Tuning
*Capo on the 4th fret, all notes relative.


E|-----------|----------------------|----------------------|
B|-----1111--|-----1---111-1---111--|-----11------1111111--|
G|-----0000--|-----0h2-222-0h2-222--|-----00------0000000--|
D|-----2222--|--3--3---333-3---333--|-----00------2222222--|
A|--3--3333--|----------------------|-----22---0--0000000--|
E|-----------|----------------------|--3--32---------------|


This is played for the whole song.
E-mail me with any questions at schwabee@comcast.net
Suggest correction
comments
print report bad tab
guest
You may want to rate the tab now too:
select rating
Wanna post a correction for this tab? Suggest correction