Oops, an error
Loading. Please wait.

Sarah Donner - The Motherfucking Pterodactyl Song Bass Tab

203 views 1 this week
no commentswrite comment
1 2 3 4 5
please rate
add to favorites
launch autoscroll
font size
0
reset
guitar tuner
Tab Pro tools
  • play this tab
  • loop segment
  • change instrument
  • show fretboard
  • metronome
×
Best way to learn
"Sarah Donner - The Motherfucking Pterodactyl Song"
Autoscroll
slow
fast
+/-
esc
set tempo
stop
Contributor
-----------------------------------------------------------------------
    The Motherfucking Pterodactyl Song - The Oatmeal & Sarah Donner        
-----------------------------------------------------------------------
Tabbed by: poker_weirdo
E-mail: poker_weirdo@hotmail.co.uk

Tuning: Standard

Intro
G|---------|---------|---------|---------|
D|---------|---------|-2---0---|-2---0---|
A|---------|---------|---2---0-|---2---0-|
E|---------|---------|---------|---------|

Chorus
G|---------|---------|---------|---------|---------|---------|---------|
D|-2---0---|-2---0---|-2---0---|-2---0---|---------|-2---0---|-2---0---|
A|---2---0-|---2---0-|---2---0-|---2---0-|-3---5---|---2---0-|---2---0-|
E|---------|---------|---------|---------|---------|---------|---------|

Verse
G|---------|---------|---------|---------|---------|---------|---------|
D|-2---4---|-6---7---|-2---4---|-6---7---|-2---4---|-6---7---|-2---4---|
A|---------|---------|---------|---------|---------|---------|---------|
E|---------|---------|---------|---------|---------|---------|---------|

G|---------|---------|
D|-6---7---|-7-------|
A|---------|---------|
E|---------|---------|

Chorus
G|---------|---------|---------|---------|---------|---------|---------|
D|-2---0---|-2---0---|-2---0---|-2---0---|---------|-2---0---|-2---0---|
A|---2---0-|---2---0-|---2---0-|---2---0-|-3---5---|---2---0-|---2---0-|
E|---------|---------|---------|---------|---------|---------|---------|

Verse
G|---------|---------|---------|---------|---------|---------|---------|
D|-2---4---|-6---7---|-2---4---|-6---7---|-2---4---|-6---7---|-2---4---|
A|---------|---------|---------|---------|---------|---------|---------|
E|---------|---------|---------|---------|---------|---------|---------|

G|---------|---------|
D|-6---7---|-7-------|
A|---------|---------|
E|---------|---------|

Chorus
G|---------|---------|---------|---------|---------|---------|---------|
D|-2---0---|-2---0---|-2---0---|-2---0---|---------|-2---0---|-2---0---|
A|---2---0-|---2---0-|---2---0-|---2---0-|-3---5---|---2---0-|---2---0-|
E|---------|---------|---------|---------|---------|---------|---------|

(A Capella Verse)

Chorus
G|---------|---------|---------|---------|---------|---------|---------|
D|-2---0---|-2---0---|-2---0---|-2---0---|---------|-2---0---|-2---0---|
A|---2---0-|---2---0-|---2---0-|---2---0-|-3---5---|---2---0-|---2---0-|
E|---------|---------|---------|---------|---------|---------|---------|

Bridge
G|---------|---------|---------|---------|---------|---------|---------|
D|---------|---------|---------|---------|-2-------|-4-------|-6-------|
A|-3-------|-5-------|-3-------|-5-------|---------|---------|---------|
E|---------|---------|---------|---------|---------|---------|---------|

G|---------|---------|
D|-7-------|-7-------|
A|---------|---------|
E|---------|---------|

Chorus & Outro
G|---------|---------|---------|---------|---------|---------|
D|-2---0---|-2-------|-2---0---|-2---0---|---------|-2---0---|
A|---2---0-|---------|---2---0-|---2---0-|-3---5---|---2---0-|
E|---------|---------|---------|---------|---------|---------|

G|---------|---------|---------|---------|---------|---------|
D|-2---0---|-2---0---|-2---0---|-2---0---|---------|---------|
A|---2---0-|---2---0-|---2---0-|---2---0-|-3-------|-5-------|
E|---------|---------|---------|---------|---------|---------|

G|---------|---------|---------|---------|---------|
D|---------|---------|---------|-2---0---|-2---0---|
A|-3-------|-5-------|-5-------|---2---0-|---2---0-|
E|---------|---------|---------|---------|---------|


=======================================================================
comments
We did not receive enough feedback on this tab! Please rate:
print report bad tab
1 2 3 4 5
I want to post or [tab]
guest
You may want to rate the tab now too:
select rating
Please do not post tabs as comments. Select "correction" instead!